Richie Sambora - Undiscovered Soul Chords & Tabs

 

Undiscovered Soul Chords & Tabs

Richie Sambora Chords & Tabs

Version: 1 Type: Tab 0 ratings
1 star 2 stars 3 stars 4 stars 5 stars
comments

Undiscovered Soul Tab

   
Undiscovered Soul - Richie Sambora
Transcribed By Ertunc Kocakoglu (Mr.Sambo)


I don't think this title track to the album is as good as Stranger In This Town... 
but that's for you to decide. Enjoy anyway...

Intro: Just play the two bass notes of each chord for guitar 1.

    E                             A                   
  E|--------------|---------12vvv|vvvvv---------|--------------|
  B|--------------|---------12vvv|vvvvv---------|--------------|
  G|--------------|--------------|--------------|--------------|
  D|--------------|--------------|--------------|--------------|
  A|--------------|--------------|--------------|--------------|
  E|--------------|--------------|--------------|--------------|

    C#m            B              A         
  E|--------------|--------------|--------------|--------------|
  B|--------------|--------------|--------------|--------------|
  G|--------------|--------------|--------------|--------------|
  D|--------------|--------------|--------------|------------2-|
  A|--------------|--------------|--------------|--------2h4---|
  E|--------------|--------------|--------------|--------------|

    E                             A
  E|--------------|--------------|--------------|--------------|
  B|--------------|--------------|--------------|--------------|
  G|-1------------|---1----------|--------------|--------------|
  D|--------------|-----4b5r(4)-2|-4-4b5r(4)-2--|---------2----|
  A|--------------|-2------------|--------------|-----2h4------|
  E|-0--0--0----0-|--------------|--------------|--------------|


    C#m            B        A     E
  E|---------------------------|--0---------
  B|---------------------------|--0---------
  G|---------------------------|--1---------
  D|-2s4---1-------------------|--2---------
  A|-------------4--2--2---2s4-|--2---2-2---
  E|---------------------------|--0-------0-


  She was standing at the station
             A
  Small town suitcase in her hand
             C#m                B
  There were dreams she found inside her
              A
  That no-one cared to understand
  
            E                 
  She never talks about her childhood
          A           
  So much past to leave behind
           F#m     
  She's so scared to go
      A                  E
  But still she says goodbye
  
                                     A                   
  When you walk that road, You walk alone
          F#m              A               E
  Just an undiscovered soul in the great unknown
                                    A
  When your only hope, Is to find a home
          F#m              A           C#m  B  A     E
  Just an undiscovered soul in great unkown___________
[ Tab from: http://www.guitartabs.cc/tabs/r/richie_sambora/undiscovered_soul_tab.html ]
				                           E|------------
							B|-10b12r(10)-
							G|------------
							D|------------
							A|------------
							E|------------
  Born and raised in poverty
        A
  Daddy died when he was young 
          C#m                B              
  All the fears that raged inside him
             A
  His spirit needs to overcome
  
              E
  Each day he tears down the reflection
     A
  Of who he used to be
             F#m
  And with a little luck
        A           E
  He'll rise eventually
  
  
  When you walk that road, You walk alone
          F#m              A               E
  Just an undiscovered soul in the great unknown
                                    A
  When your only hope, Is to find a home
          F#m              A           C#m  B  A     
  Just an undiscovered soul in great unkown___________
              E
  The great unknown

 Solo:

  E|----------------------------------------------------------
  B|----------------------------------------------------------
  G|-------1vvv-----------------------------------------------
  D|-----2-------4b6r4b6-2-4-4b6-2-222-------2vvv-2-2s4-1vvv--
  A|-2h4---------------------------000---2-4------------------
  E|-----------0----------------------------------------------

  E|-------------000------------------------------------------
  B|-------------000---5-4-2----------------------------------
  G|-------------------------4-2-1-1s2-1----------------------
  D|-------------------------------------2-4-4b6r4b6--2-----2-
  A|-4-2-2-4-0------------------------------------------2-4---
  E|----------------------------------------------------------

  E|----------------<12><12><12>-
  B|----------------<12><12><12>-
  G|-2--1------------------------
  D|-----------------------------
  A|-----------------------------
  E|----0------------------------

  E
  In the search for our salvation
    A
  Relentlessly we climb
       C#m           B
  Just looking for a reason
        A              
  In creation's grand design

     E             
  If patients is a virtue
              A
  Then let us hubly begin
                F#m
  We'll be here waiting
            A                  E
  'Till our ship comes sailing in

                                    A
  When you walk that road, You walk alone
          F#m              A               E
  Just an undiscovered soul in the great unknown
                                 A
  When your only hope, Is to find a home
                 F#m          A                 E
  You're just an undiscovered soul in the great unknown
 
              E
  The great unknown
            A
  The great unknown
               F#m          
  Dont want to walk through life
        A         E
  An undiscovered soul

  |E   |E   |A   |A   |F#m |A   |E   |

                    E
  Searching for the road
                                  A
  Looking for a home in the great unknown
               F#m
  Dont want to walk through life
     A            E
  An undiscovered soul

  |E   |E   |A   |A   |F#m |A   |E   |E   |

  (PLAY THIS TO ABOVE BACKING):
  
  E|-5p4---------------------|  Repeat this a few times
  B|-----5---5-7p5---7p5---5-|
  G|-------4-------4-----4---|
  D|-------------------------|
  A|-------------------------|
  E|-------------------------|

  |E   |E   |A   |A   |F#m |A   |C#m |B   |A   |G   |G   |E   |

  Identity, Soul, Patients, virtue, identity, soul, etc...
  
         E                     A          C#m      B            A........Carry till end
  E|-------(0)------------------------------------------------------
  B|----------------------------------------------------------------
  G|----------------------------------------------------------------
  D|-2-4-4b6vvvvvv-4b6r4b6r4-2-4-2------1-2vvv-2-4-1vvv---------222-
  A|-0-----------------------------4vvv-----------------4-2-2---000-
  E|----------------------------------------------------------------
Comments