Richie Sambora - In It For Love Chords & Tabs

 

In It For Love Chords & Tabs

Richie Sambora Chords & Tabs

Version: 1 Type: Tab 0 ratings
1 star 2 stars 3 stars 4 stars 5 stars
comments

In It For Love Tab

   
Artist= Richie Sambora
Song = \"In It For Love\"
Album = \"Undiscovered Soul\"

This song is a great soft acoustic Ballad from Richie, wonderful to play on your acoustic guitar
of course! The fingering may be a small challenge for beginners but you\'ll get there in the end.
Have Fun!!!

Intro:
[ Tab from: http://www.guitartabs.cc/tabs/r/richie_sambora/in_it_for_love_tab.html ]
E|-----------------------------------------|---------------|
B|-----------------------------------3-----|---------------|
G|--2---2--4--2--4--4h5p4--2-0---0-2----0--|---------------|
D|----0------------------------0-----0--0--|--0h2p0--------|
A|-----------------------------------------|--------3-2-0--|
E|--2---2--3--2--3---------2-0-----2----3--|---------------|

E|---------------------------------------------------|
B|---------------------------------------------------|
G|--2---2--4--2--4--4h5p4--2-0-----------------------|
D|----0------------------------0--4------4---5--2----|
A|--------------------------------5--5-------3--3----|
E|--2---2--3--2--3---------2-0-----------------------|

Verse chords:

G - D - Em - C - D - G (line 1)
G - D - Em - C - G - D (line 2)

Bridge:

Am - D (x2)

D

Chorus:

See verse line 2 - (x2)


For final chorus move chords up a key!


Tabbed by Ross O\'Keefe
welcometothegoodtimes@hotmail.com
Comments