Richie Sambora - All That Really Matters Chords & Tabs

 

All That Really Matters Chords & Tabs

Richie Sambora Chords & Tabs

Version: 1 Type: Tab 0 ratings
1 star 2 stars 3 stars 4 stars 5 stars
comments

All That Really Matters Tab

   
ARTIST: Richie Sambora
TITLE: All That Really Matters
ALBUM: Undiscovered Soul
TABBED BY: Martin Kelly


INTRO [Electric guitar]

E-----------------------------------------------------------------------------------------
B--12[13]--12----8-10-12/6----3[5]----3---------------------------------------------------
G-----------------------------------------------------------------------------------------
D-----------------------------------------------------------------------------------------
A-----------------------------------------------------------------------------------------
E-----------------------------------------------------------------------------------------

Verses 2+3 [Acoustic guitars [panned left and Right]
		]  Repeat x2     [
E-------------------------3---------------------------------------------------------------
B-----3--3/5--3--------3-----3------------------------------------------------------------
G--2----------------2---------------------------------------------------------------------
D-----------------------------------------------------------------------------------------
A-----------------------------------------------------------------------------------------
E-----------------------------------------------------------------------------------------

CHORUS [Acoustic guitar] G D D [Fingering below] Em G D D [Fingering below] 
			 Em G Em D[With G on High E string [Fingering below] D D

Third and            D [with G]
Seventh chord 
		[
E--0-----------------3--------------------------------------------------------------------
B--3-----------------3--------------------------------------------------------------------
G--2-----------------2--------------------------------------------------------------------
D--0-----------------0--------------------------------------------------------------------
A-----------------------------------------------------------------------------------------
E-----------------------------------------------------------------------------------------

INTERLUDE [Electric guitar]

E-----------------------------------------------------------------------------------------
B--8-10-12/6----5---3---------------------------------------------------------------------
G-----------------------------------------------------------------------------------------
D-----------------------------------------------------------------------------------------
A-----------------------------------------------------------------------------------------
E-----------------------------------------------------------------------------------------

BRIDGE [Electric guitar]
[ Tab from: http://www.guitartabs.cc/tabs/r/richie_sambora/all_that_really_matters_tab.html ]
E-----------------------------------------------------------------------------------------
B-----------------------------------------------------------------------------------------
G--2--4--7--7[9]---5[7]--7--7---5-7-8-9-----10---7----------------------------------------
D-----------------------------------------------------------------------------------------
A-----------------------------------------------------------------------------------------
E-----------------------------------------------------------------------------------------

SOLO

E----------------------------------------------15-----------------------------------------
B--15[17]--15---15-13-12--10[12]---8-10[12]--------12-------------------------------------
G------------------------------------------------------11-9---------3----2-3-5--5[7]------
D-----------------------------------------------------------------------------------------
A-----------------------------------------------------------------------------------------
E-----------------------------------------------------------------------------------------

E--15-14-12-------------------------------------------------------------------------------
B------------15-12------------------------------------------------------------------------
G------------------14-12-9----------------------------------------------------------------
D-----------------------------------------------------------------------------------------
A-----------------------------------------------------------------------------------------
E-----------------------------------------------------------------------------------------

CHORUS 3 [Electric parts]

E--------------------------------------------------------22[24]------------22-------------
B---------10[12]--12-12-12--10------------------------------------------------------------
G-------------------------------9---------------------------------------------------------
D-----------------------------------------------------------------------------------------
A-----------------------------------------------------------------------------------------
E-----------------------------------------------------------------------------------------

End Lick

E-----------------------------------------------------------------------------------------
B--12[13]-------12------------------------------------------------------------------------
G-----------------------------------------------------------------------------------------
D-----------------------------------------------------------------------------------------
A-----------------------------------------------------------------------------------------
E-----------------------------------------------------------------------------------------


For more tabs contact martin.n.kelly@ntlworld.com
Comments