Richie Ren - Dui Mian De Nu Hai Chords & Tabs

 

Dui Mian De Nu Hai Chords & Tabs

Richie Ren Chords & Tabs

Version: 1 Type: Tab 0 ratings
1 star 2 stars 3 stars 4 stars 5 stars
comments

Dui Mian De Nu Hai Tab

   
This is an awesome chinese song. If you don't understand chinese, it's still a fun
listening song :) This was the first guitar song i learned. enjoy.

Dui Mian De Nu Hai
Richie Ren

Intro:

    C 
E||----0---0---0---0|---0---0-0-------|
B||----1---1---1---1|---1---1-1-------|
G||----0---0---0---0|---0---0-0-------|
D||-----------------|-----------------|
A||--3-------3------|-3-------3-------|
E||------3-------3--|-----3-----------|

Dui Mian De Nu Hai Kan Guo Lai
    C       G7           
E||----0---0---1---1|
B||----1---1---0---0|
G||----0---0---0---0|
D||----------0------|
A||--3--------------|
E||------3-------3--|

Kan Guo Lai, Kan Guo Lai
    Am      Em   
E||---0---0---0---0-|
B||---1---1---0---0-|
G||---2---2---0---0-|
D||-----------------|
A||-0---0-----------|
E||---------0---0---|

Zhi Li De Biao Yian Hen Jing Cai
    F       C   Am
E||---1---1---0---0-|
B||---1---1---1---1-|
G||---2---2---0---2-|
D||-3---3-----------|
A||---------3---0---|
E||-----------------|

Qing Bu Yao Jia Zhuang Bu Li Bu Cai
    Dm          G7              
E||---1---1---1---1-|-1---------------|
B||---3---3---3---0-|-0---------------|
G||---2---2---2---0-|-0---------------|
D||-0---0---0-------|-----------------|
A||-----------------|-------------0-2-|
E||-------------3---|-3---------3-----|

:

Dui Mian De Nu Hai Kan Guo Lai
Kan Guo Lai, Kan Guo Lai
Bu Yao Bei Wo De Yang Zi Xia Huai
Qi Shi Wo Hen Ke Ai

Ji Mo Nan Hai De Bei Ai
Shuo Chu Lai, Shei Ming Bai
Qiu Qiu Ni Pao Ge Mei Yan Guo Lai
Hong Hong Wo Dou Wo Le Kai Huai

(He..He..he, Mei Li Wo, heh!)

Chorus:
[ Tab from: http://www.guitartabs.cc/tabs/r/richie_ren/dui_mian_de_nu_hai_tab.html ]
 C         G         Em        Am
Wo Zuo Kan You Kan, Shang Kan Xia Kan
 F                   G
Yuan Lai Mei Ge Nu Hai Dou Bu Jian Dan
 C         G         Em        Am
Wo Xiang Le You Xiang, Wo Cai Le You Cai
 F                   G
Nu Hai Men De Xin Shi Hai Zhen Qi Guai

Instrumental:
            C-G-Em-Am-F-F-G-G x2

:

Ji Mo Nan Hai De Cang Ying Pai
Zuo Pai Pai, You Pai Pai
Wei Shen Me Hai Shi Mei Ren Lai Ai
Wu Ren Wen Jin Ah, Zhen Wu Nai

:

Dui Mian De Nu Hai Kan Guo Lai
    C       G7           
E||-------0-------1--|
B||-----1---1---0---0|
G||----0---0---0---0-|
D||----------0-------|
A||--3---------------|
E||------3-------3---|

Kan Guo Lai, Kan Guo Lai
    Am      Em   
E||------0-------0---|
B||----1---1---0---0-|
G||---2---2---0---0--|
D||------------------|
A||-0---0------------|
E||---------0---0----|

Ji Mo Nan Hai Qing Dou Chu Kai
    F       C   Am
E||------1----0---0-|
B||----1---1--1---1-|
G||---2---2---0---2-|
D||-3---3-----------|
A||---------3---0---|
E||-----------------|

Xu Yao Ni Gei Wo Yi Dian Ai Hi Hi
    Dm          G7              
E||------1----------|--1--------------|
B||---3----3---3---0|----0----strum---|
G||--2----2---2---0-|---0-------G-----|
D||-0---0---0-------|--------- here---|
A||-----------------|-----------------|
E||-------------3---|-3---------------|

Chorus x2

            C-G-Em-Am-F-F-G-G x2
Hai Zhen Qi Lai lai lai ...

Fade Out

(Ah.. Suan Le, Hui Jia Ba)
Comments