Richard Wagner - Ride Of The Valkyries Chords & Tabs

 

Ride Of The Valkyries Chords & Tabs

Richard Wagner Chords & Tabs

Version: 1 Type: Tab

Ride Of The Valkyries Tab

Well this is something different. Heard this on the radio in work today and I though 
give that a go, so here we go.
"Ride of the Valkyries"

This is my take on the main riff from Richard Wagner's classic.

I plugged my strat in, turned it up, stuck some chorus and a touch of distortion on and 
let it rip! LOUD man LOUD.

In 3/4 time. Give it some bollocks.

------------------------------------------------------|
--------------------7---7---7-10---------7------------|
----------7---7---7---7---7--------7---7--------------|
----9---9---9---9----------------7---7----------------|
--9---9-----------------------------------------------|
------------------------------------------------------|
[ Tab from: http://www.guitartabs.cc/tabs/r/richard_wagner/ride_of_the_valkyries_tab.html ]
---------------------------------9---------6----------|
----------7---7---7-10-7-10-7-10-----7---7------------|
----7---7---7---7------------------6---6--------------|
--7---7-----------------------------------------------|
------------------------------------------------------|
------------------------------------------------------|

------------------------------------------------------|
------------------------------------------------------|
----------4-----------4-----------5-------4-7---------|
--4-5---5-----4-5---5-----4-5---5---4---4-------------|
------7-----------7-----------7-------5---------------|
------------------------------------------------------|

-------------------------------------------------------------|
------------------------------------------4-7-------4-7------|
----------4-----------4-----------6-----4---------4----------|
--4-5---5-----4-5---5-----4-5---5---5-4---------4------------|
------7-----------7-----------7------------------------------|
-------------------------------------------------------------|

Brilliant......enjoy...taff