Richard Marx - Right Here Waiting Chords & Tabs

 

Right Here Waiting Chords & Tabs

Richard Marx Chords & Tabs

Version: 3 Type: Tab 0 ratings
1 star 2 stars 3 stars 4 stars 5 stars
comments

Right Here Waiting Tab

   
-------------------------------------------------------------------------------
		Right Here Waiting - Marx Richard
-------------------------------------------------------------------------------
Tabbed by: Shadowgouki
Email: sfgouki@yahoo.com

Sorry for the huge gaps and not many intervals between notes....this is my
first tab so i'm not used to the formalities...hope its good help


Tuning: Normal

e|-----------3--3--1--0---------------------0--1--0--------------------0-----|
B|--------1--------------3------------3--3--------------------1--1--3-----3--|
G|---------------------------------0-----------------------0-----------------|
D|-----2------------------------0-----------------------2--------------------|
A|--3------------------------2-----------------------0-----------------------|
E|---------------------------------------------------------------------------|
[ Tab from: http://www.guitartabs.cc/tabs/r/richard_marx/right_here_waiting_tab_ver_3.html ]
e|-------------------------3--3--1--0--------------------0--1--0-------------|
B|--1--0----------------1--------------3-----------3--3--------------------1-|
G|--------0h2--0--------------------------------0-----------------------0----|
D|-------------------2-----------------------0-----------------------2-------|
A|----------------3-----------------------2-----------------------0----------|
E|---------------------------------------------------------------------------|

e|--------0--1--0----------------------0--1--0--------------0--1--0----------|
B|--1--3-----------3--1--0--1----1--3-----------3--1--1--3-----------3--1----|
G|---------------------------------------------------------------------------|
D|---------------------------------------------------------------------------|
A|---------------------------------------------------------------------------|
E|---------------------------------------------------------------------------|

| /  slide up
| \  slide down
| h  hammer-on
| p  pull-off
| ~  vibrato
| +  harmonic
| x  Mute note
===============================================================================
Comments