Richard Marx - Now And Forever Chords & Tabs

 

Richard Marx Chords & Tabs

Version: 6 Type: Tab 0 ratings
1 star 2 stars 3 stars 4 stars 5 stars
comments

Now And Forever Tab

   
NOW AND FOREVER
Richard Marx

johnsantos_17@yahoo.com

Standard Tuning	(EADGBE)

INTRO:	RIFF 1

E-----------3----------------------------
B---0-----------0---0-h-1----1-sl-3---1--
G-----------0----------------------------(Lead-in)
D-------0-----------0-h-2----2-sl-4---2--
A----------------------------------------
E---3------------------------------------

Lead-in I
E---------3------------------------------
B----------------1-p-0----0--------------
G------------------------0---------------
D-----2----------------------------------
A--3---------3---------------------------
E----------------------------------------

Lead-in II
E-------3---------------
B---------------1-------
G-----------------------
D----2------------------
A--3-------3------------
E-----------------------

VERSE:	RIFF 2
Whenever I'm weary

E----------3-------------------------------0--
B--0----------------------3---------------0---
G----------0----------------2---------0-------
D-----0---------------0------------2----------
A--------------------------------2------------
E--3-----------3--2---------------------------
 
From the battles that rage in my head

E-----------------------------------------0----
B-----------1------------1----------3--------3-
G-----------0------------0-------2----2---2----
D-------2------------2--------0----------------
A-2-0----------0-3-----------------------------
E----------------------------------------------

You make sense of madness, when my sanity hangs by a thread.	(RIFF 2)

RIFF 3
I loose my way but still you seem to understand
	C			B7			
E-----------0-----------0------------2-----------2-
B-----------1-----------1------------0-----------0-
G--------0-----------0------------2-----------2----
D-----2-----------2------------1-----------1-------
A--3-----------3------------2-----------2----------
E--------------------------------------------------

	Em	 D	    Em
E---------0----------2-----------------0-----
B------------0-------3--0--------------0-----
G---------0-------2---------------0----0-----
D------2--------0--------------2-------2-----
A-0-2-----------------------2----------2-----
E--------------------------------------------


Now & forever, I will be your man.
	Am7			D
E-------------------------------------3---2---0--
B----------1------1p0----0-----------3----3------
G-------0------0-------0---------2---------------
D----2-------2-----------------0-----------------
A-0----------------------------------------------
E------------------------------------------------

1st Interlude:	RIFF 1 (with lead-in II)

2nd Verse:	RIFF 2
Sometimes I just hold you...

		RIFF 3
I tried to show...

2nd Interlude:

E---------3----------------------------------3--
B--0--------0---0-h-1---1-sl-3----1-------------
G--------0--------------------------------------
D-----0---------0-h-2---2-sl-4----2-------------
A-----------------------------------------3-----
E--3--------------------------------------------

RIFF 4
Now I can rest my worries and always be sure...
   B7	       Em	   C		G	D
E---------2-----------0---------0----------3------------2----
B-----------0---0-------------------------------------3----3-
G--------2------------0---------0----------0------2----------
D-----1------------2---------2----------0------0-------------
A--2------------2---------3----------------------------------
E -------------------------------------3---------------------
[ Tab from: http://www.guitartabs.cc/tabs/r/richard_marx/now_and_forever_tab_ver_6.html ]
That I won't be alone anymore...
	Em	C	G	D
E-------0---------0---------3-----------2h3p2------------
B--------------------------------------3----------3------
G-------0---------0---------0------2---------------2-----
D----2---------2---------0------0------------------------
A-2---------3--------------------------------------------
E----------------------3---------------------------------

If I'd only know...
	Em	C	G	D
E-------0---------0---------3---------2--------------------
B--------------------------------------3-------------------
G-------0---------0---------0------2-----------------------
D----2---------2---------0------0--------------------------
A-2---------3----------------------------------------------
E-----------------------3----------------------------------

All the time, all this 	time!
	Am7		Cm	
E-----------0-----0-----------3-----3-----3----------------
B-----------1-----1----------------------------------------
G--------0-----0--------------5-----5-----5----------------
D-----2---------------------5-----5-----5------------------
A--0---------------------3---------------------------------
E----------------------------------------------------------

ADLIB:	Gtr. 1 (RIFF 2)
	
Gtr. 2
E-----------------------------
B-----------------------------
G-----------------------------
D-5~----5h7p5-4--5-7---7sl-9~-
A-----------------------------
E-----------------------------

E---------------------------------------------
B---------------------------------------------
G---------------------------------------------
D--9-h-10--7-9--9-sl-10----10h12p10-9--5--7~--
A---------------------------------------------
E---------------------------------------------

E---------------------------------------------------7---
B-----------------------8~--------7---7h8p7--5----------
G---------------4-7-4-------4---------------------------
D-------4-5-7------------------7------------------------
A--5-7--------------------------------------------------
E-------------------------------------------------------

E--7-7h8-77----7h8p7------7----------------------------
B--------------------------10----8------88----8-h-10---
G-------------------------------------77-----7---------
D------------------------------------------------------
A------------------------------------------------------
E------------------------------------------------------

E------------------------------------------------------
B--8--7h8p7--5-----------------------------------------
G-----------------7-5-4-4h5~---------------------------
D------------------------------------------------------
A------------------------------------------------------
E------------------------------------------------------

Until the day the ocean doesn't touch the sand...	(RIFF 3)

OUTRO:

Now & forever	I will be...
    Am7		  D
E--------------------------------3---2---0----0-h-2----
B----------1------1-p-0----------3---3---3--3-h-3------
G-------0------0-------------2-------------------------
D----2-------2------------0----------------------------
A-0----------------------------------------------------
E------------------------------------------------------

 
Your man
     C			Cm
E--------------0----------------------3----------------
B--------1-------1--------4----4-------4---------------
G----------0-------0--------------5-------5--0---------
D-----2----------------------5-------------------------
A--3----------------------3----------------------------
E------------------------------------------------------

E---------3------------------3~-----
B--0---------0----1--3-------0~-----
G---------0------------------0~-----
D------0----------2--4-------0~-----
A----------------------------2~-----
E--3-------------------------3~-----
Comments