Richard Marx - Now And Forever Chords & Tabs

 

Now And Forever Chords & Tabs

Richard Marx Chords & Tabs

Version: 5 Type: Tab 0 ratings
1 star 2 stars 3 stars 4 stars 5 stars
comments

Now And Forever Tab

   
  Song : Now & Forever
  Artist : Richard Marx 

  I've tabbed only the solo part. The song has been already tabbed beautifully by shaharizal.
  ... and i've taken abstract of the same for the sake of solo.
  When the solo is played the chord (tabbings) is bieng played similarly 
  as from the very first word of the song.
  I've included both the chord tabbings and the solo ...so that you get the timing bothways.
  
   h : hammer-on
   p : pull-off
   / : slide up
   \ : slide down

 Solo alongwith Chords:

 ...Now I can rest my worries
    and always be sure
    that I won't be alone anymore,
    if I'd only  Kno..
  ..own  you  were there   all  the ti...m...e                   all this  t...
 |----------3-------|----------2-------|-----------h--3---|------------------|
 |----------0-------|----------3-------|----------0/1-----|------------------|
 |------0-------0---|------2-------2---|------------------|------------------|
 |------------------|--0---------------|------2-----------|----------2-------|
 |------------------|------------------|--0---------------|------0-------0---|
 |--3---------------|------------------|------------------|------------------|
    1 . 2 . 3 . 4 .    1 . 2 . 3 . 4 .    1 . 2 . 3 . 4 .    1 . 2 . 3 . 4 .
 
  .......i...............m...........e.
 |--3---------------|------------------|
 |----------4-------|------------------|
 |------------------|--5---------------|
 |------------------|----------5-------|    
 |------3-------3---|------3-------3---|
 |------------------|------------------|
    1 . 2 . 3 . 4 .    1 . 2 . 3 . 4 .  

======================================================================================

(Chord-tabs)
 |----------3-------|------------------|--------------0---|
 |--0---------------|----------3-------|--------------0---|
 |------------------|------2-----------|------------------|
 |------0-----------|------------------|----------2-------|
 |------------------|------------------|------2-----------|
 |--3-----------3---|--2-----------2---|--0---------------|
    1 . 2 . 3 . 4 .    1 . 2 . 3 . 4 .    1 . 2 . 3 . 4 .   
 
(Solo)
e|---------------------------------------------------------
B|---------------------------------------------------------
G|---------------------------------------------------------
D|--5-----------5h7p5--4-----5-----7------7/9------9-------
A|---------------------------------------------------------
E|---------------------------------------------------------
                             


 |------------------|------------------|------------------|------------------|
 |--------------0---|----------1-------|--------------0---|----------3-------|
 |----------0-------|--------------2---|----------2-------|------2-------2---|
 |------2-----------|------2-----------|------0-----------|------------------|
 |------------------|--0---------------|------------------|------------------|
 |------------------|------------------|--3---------------|--2---------------|
    1 . 2 . 3 . 4 .    1 . 2 . 3 . 4 .    1 . 2 . 3 . 4 .    1 . 2 . 3 . 4 .  

e|----------------------------------------------------------------------------
B|-----------4--5---4--5-----------5h7p5--4-----------------------------------
G|----------------7-------------------------------5----------7----------------
D|----------------------------------------------------------------------------
A|----------------------------------------------------------------------------
E|----------------------------------------------------------------------------


 |--0---------------|----------3-------|------------------|--------------0---|
 |----------3-------|--0---------------|----------3-------|--------------0---|
 |--------------2---|------------------|------2-----------|------------------|
 |------------------|------0-----------|------------------|----------2-------|
 |------------------|------------------|------------------|------2-----------|
 |------2-----------|--3-----------3---|--2-----------2---|--0---------------|
    1 . 2 . 3 . 4 .    1 . 2 . 3 . 4 .    1 . 2 . 3 . 4 .    1 . 2 . 3 . 4 .
 
[ Tab from: http://www.guitartabs.cc/tabs/r/richard_marx/now_and_forever_tab_ver_5.html ]
e|--------------------------------------------------------------------7-------
B|-----------------------------8------------------7--7h8p7--------------------
G|-----------------4h7-4---------------4---------------------9----------------
D|--------4--5--7-------------------------7-----------------------------------
A|----5-7---------------------------------------------------------------------
E|----------------------------------------------------------------------------


 |------------------|------------------|------------------|------------------|
 |--------------0---|----------1-------|--------------0---|----------3-------|
 |----------0-------|--------------2---|----------2-------|------2-------2---|
 |------2-----------|------2-----------|------0-----------|------------------|
 |------------------|--0---------------|------------------|------------------|
 |------------------|------------------|--3---------------|--2---------------|
    1 . 2 . 3 . 4 .    1 . 2 . 3 . 4 .    1 . 2 . 3 . 4 .    1 . 2 . 3 . 4 .  

e|--7h8-7-7h8p7------------9--------------------------------------------------
B|--------------10----10-----8----------------8-8------------8/10-------------
G|-------------------------------------7--7---------------7-------------------
D|----------------------------------------------------------------------------
A|----------------------------------------------------------------------------
E|----------------------------------------------------------------------------

                                                   ...Until the day ......the ocean... 
 |--0--------------------------|---------------0---|------------------|
 |---------------------3-------|-------------------|----------1-------|
 |-------------------------2---|-----------0-------|--------------0---|
 |-----------------------------|-------2-----------|------2-----------|
 |-----------------------------|---3---------------|--3---------------|
 |---------2-------------------|-------------------|------------------|
    1  .   2    .      3 . 4 .     1 . 2 . 3 . 4 .    1 . 2 . 3 . 4 .    

e|----------------------------------------------
B|---------8-7h8p7------------------------------
G|------------------9--7\5\4\2----4---5---------
D|----------------------------------------------
A|----------------------------------------------
E|----------------------------------------------


 Thats all i've got. I hope its right.
 And if there are mistake(s)....then please do tell me.
 
======================================================================================

Solo (only) :

e|-------------------------------------------------------------------
B|----------------------------------4--5---4--5----5h7p5--4----------
G|---------------------------------------7-------------------5----7--
D|-5--5h7p5--4---5---7---7/9---9-------------------------------------
A|-------------------------------------------------------------------
E|-------------------------------------------------------------------

e|--------------------------------------------------7----------------
B|--------------------------8---------7----7h8p7---------------------
G|-----------------4h7--4------4-----------------9-------------------
D|--------4--5--7-----------------7----------------------------------
A|----5-7------------------------------------------------------------
E|-------------------------------------------------------------------

e|--7h8-7-7h8p7---------9--------------------------------------------
B|--------------10--10-----8----------8-8------8/10------------------
G|-------------------------------7-7--------7------------------------
D|-------------------------------------------------------------------
A|-------------------------------------------------------------------
E|-------------------------------------------------------------------
                             
e|-------------------------------------------------------------------
B|---------8-7h8p7---------------------------------------------------
G|------------------9--7\5\4\2----4---5------------------------------
D|-------------------------------------------------------------------
A|-------------------------------------------------------------------
E|-------------------------------------------------------------------


TABBED BY
shaharizal a.k.a SLASH!
Comments