Richard Marx - Now And Forever Chords & Tabs

 

Now And Forever Chords & Tabs

Richard Marx Chords & Tabs

Version: 3 Type: Tab 0 ratings
1 star 2 stars 3 stars 4 stars 5 stars
comments

Now And Forever Tab

Solo to Now & Forever by Richard Marx

Tabber - Jake Chen 

Bored, did it. 

Comments and corrections to darc_blade@hotmail.com
Play the verse tab to accompany the solo


E|--------------------------------------------------|
B|--------------------------------------------------|
G|-V--------------V---------------------------------|
D|-5--5h7p4-4-5/7/9---9-10-7-9-10--10h12p10/9----V--|
A|--------------------------------------------10-12-|
E|--------------------------------------------------|
[ Tab from: http://www.guitartabs.cc/tabs/r/richard_marx/now_and_forever_tab_ver_3.html ]
E|-------------------------------------------|
B|------------------8------7--------------12-|
G|---------4-5-7--4---4---------11h12p11/9---|
D|---4-5-7---------------7---7---------------|
A|-5-----------------------------------------|
E|-------------------------------------------|

E|-----------------------------------------------------|
B|----12h13-12-12----------12--------------------------|
G|----------------14p12-14---12--------12-12-----12/14-|  
D|-14---------------------------14-12---------12-------|
A|-----------------------------------------------------|
E|-----------------------------------------------------|

E|--------------------|
B|-8-7-5--------------|
G|-------7-5-4--------|
D|-------------7-9h10-|
A|--------------------|
E|--------------------|
Comments