Richard Marx - Hold On To The Nights Chords & Tabs

 

Hold On To The Nights Chords & Tabs

Richard Marx Chords & Tabs

Version: 1 Type: Tab 0 ratings
1 star 2 stars 3 stars 4 stars 5 stars
comments

Hold On To The Nights Tab

Richard Marx,Hold On To The Nights.
 Tabbed by Corey Timmons,coreytimmons@ca.freei.net.
  
song:Hold On To The Nights
Artist:Richard Marx
Album: Rocking 80's
                     ()=bend /=slide   

e--------2--5-9----------
B-10-7-10-9-----0-12-----
G------------------------
D--------------4---------
A------------------------
E------------------------

e---------2--4-7---------
B-10-7-10--9-----0-12----
G------------------------
D---------------4--------
A------------------------
E-------------------(4)--

e--------2--5-9------
B-10-7-10-9----------
G--------------------
D--------------4-----
A--------------------
E--------------------

e-------9-6-8-7-6-----
B-6/7/8---------------
G---------------------
D---------------------
A---------------------
E---------------------

e-------9-6-8-7------
B-6/7/8--------------
G--------------------
D--------------0-----
A--------------------
E--------------------

verse 1

just when I believed I couldnt ever want for more
this ever changing world pushes me through another door I saw you smile and me mind could not erase the beauty of you'r face just for a while won't you let me shelter you

CHORUS

hold on to the nights
e-------3-0--------
B-7-5-7------------
G------------------
D------------------
A------------------
E------------------
hold on to the memories
e--------(6)------------
B-----------------------
G-----------------------
D-----------------------
A-----------------------
E-----------------------
I wish that I could give you something more
e---8---(10)-----------
B----------------------
G-1--------------------
D----------------------
A----------------------
E----------------------
And I could be you'res
e--------2--5-9----------
B-10-7-10-9-----0-12-----
G------------------------
D--------------4---------
A------------------------
E------------------------

e--------9-6-8-7-6-------
B-6/7/8------------------
G------------------------
D------------------------
A------------------------
E------------------------
[ Tab from: http://www.guitartabs.cc/tabs/r/richard_marx/hold_on_to_the_nights_tab.html ]
e--------9-6-8-7------
B-6/7/8---------------
G---------------------
D---------------0-----
A---------------------
E---------------------

verse 2

how do we explain
e--------5/6-8-----
B-6-6-6-6----------
G------------------
D------------------
A------------------
E------------------
something that took us by surprise
e-----------------------5/6-8----
B-6-6-6-6-6-6-6-6-6-6-6------6---
G--------------------------------
D--------------------------------
A--------------------------------
E--------------------------------
promises in vain
e-------5/6-8-----------
B-6-6-6-------6-6-6-----
G-----------------------
D-----------------------
A-----------------------
E-----------------------
love that is real but in desguise
e---------------------5/6-8-----
B-6-6-6-6-6-6-6-6-6-6-------6---
G-------------------------------
D-------------------------------
A-------------------------------
E-------------------------------
what happens now
e--------------------
B-6-6-6-6-6-6-6------
G--------------------
D--------------------
A--------------------
E--------------------
do we break another rule or let our love play the fool
e-------5/6-8--------5/6-8-----
B-6-6-6-------6-6-6-6----------
G------------------------------
D------------------------------
A------------------------------
E------------------------------
I don't know how
e--------------------
B-6-6-6-6-6-6-6------
G--------------------
D--------------------
A--------------------
E--------------------
to stop feeling this way ~~~~~~~~
e---------------------------
B-6-6-6-6-6-6-6-6-6-6-6-----
G---------------------------
D---------------------------
A---------------------------
E---------------------------

end of verse 2

that is all I have right now, but the rest should be done very soon. I just put this in now because no one else has it on the net. so just lean this for now and I'll get the solo in on the electric soon.
Corey Timmons
any ?'s or comments e-mail me at: coreytimmons@ca.Freei.net
 
:: Ultimate Guitar Archive :: 
http://www.ultimate-guitar.com 

 
Comments