Richard Marx - Hazard Chords & Tabs

 

Hazard Chords & Tabs

Richard Marx Chords & Tabs

Version: 2 Type: Tab 0 ratings
1 star 2 stars 3 stars 4 stars 5 stars
comments

Hazard Tab

   
-----------------------------------------------------------------
SONG NAME – Hazard Solo – Modified after 3P2P0
-----------------------------------------------------------------
Tabbed by: Chris Achilles
Email: Cachilles6@aol.com

Tuning: Standard – Classical Guitar. 4/4 timing – Bars indicated

Note – I’ve re tabbed the existing solo tab with the 6th & 7th bar altered to sound
more like the original song as myself and others thought that it did not sound correct
after 3P2P0. Nearly all as the other tab apart from the 7th Bar & slight tweak at the
end.

Bar 7 needs to be played really fast and is a bit tricky at first. Plays better with
rest stroke.
Not perfect but closer 7th bar I think.

e|-6--6--5-5-5-3—5/|6---------|-6-5-6-8--10-10-8-|-6-5H6-------|
B|-----------------|----------|------------------|--------6—8--|
G|-----------------|----------|------------------|-------------|
D|-----------------|----------|------------------|-------------|
A|-----------------|----------|------------------|-------------|
E|-----------------|----------|------------------|-------------|
[ Tab from: http://www.guitartabs.cc/tabs/r/richard_marx/hazard_tab_ver_2.html ]
e|-------------|--------------|-----------1-3-|-5-6-8-10--6--8-|
B|----6-6-5----|--------------|-1-3--1--------|----------------|
G|-5---------5-|----3P2P0-2 3-|-----3--3-1----|----------------|
D|-------------|--------------|---------------|----------------|
A|-------------|--------------|---------------|----------------|
E|-------------|--------------|---------------|----------------|

e|---5-6-8-10-13-13-|-11-10-10-8-6-5-|-5-------|---------------|
B|-8----------------|----------------|-----8-6-|-8-------------|
G|------------------|----------------|---------|----7--5-------|
D|------------------|----------------|---------|---------------|
A|------------------|----------------|---------|---------------|
E|------------------|----------------|---------|---------------|

e|----------------|-6-6-6-5--3---1--|
B|----------6--8--|-----------------|
G|-5-5-5-7--------|-----------------|
D|----------------|-----------------|
A|----------------|-----------------|
E|----------------|-----------------|

 
 
| / slide up
| \ slide down
| h hammer-on
| p pull-off
| ~ vibrato
| + harmonic
| x Mute note
Comments