Richard Marx - Cant Help Falling In Love Chords & Tabs

 

Cant Help Falling In Love Chords & Tabs

Richard Marx Chords & Tabs

Version: 1 Type: Tab 0 ratings
1 star 2 stars 3 stars 4 stars 5 stars
comments

Cant Help Falling In Love Tab

date: february/8/2003	
solo guitar transcription of;
Song: Can't Help falling in love.
Artist: Richard Marx.  
Transcribed by:Frost(saotome_22@yahoo.com)

NOte:
Alright!! this should be my second tab, i'm so happy to finished this second 
tab of mine. this is solo guitar tab, of "can't help falling in love".

if you have any questions or comments contact me at my email shown at the top..


[ Tab from: http://www.guitartabs.cc/tabs/r/richard_marx/cant_help_falling_in_love_tab.html ]
E|---3----3h6p3--2-3-6-6/8-8----8-9-6-8-9--9/11-8--8h9p8--------2h3p2---2-----|
A|-------------------------------------------------------9-11---------5---3---|
B|----------------------------------------------------------------------------|
G|----------------------------------------------------------------------------|
D|----------------------------------------------------------------------------|
E|----------------------------------------------------------------------------|

E|-------3-3/5-3-5-5/7-7---5-7-7h8p7-7--5--3----------------------------------|
A|---1-0------------------3------------3--------------------------------------|
B|----------------------------------------------------------------------------|
G|----------------------------------------------------------------------------|
D|----------------------------------------------------------------------------|
E|----------------------------------------------------------------------------|


Ingat kayo dyan, si jc to.

well thats it!!good luck!!
Comments