Richard Hell - Love Comes In Spurts Chords & Tabs

 

Love Comes In Spurts Chords & Tabs

Richard Hell Chords & Tabs

Version: 1 Type: Tab 0 ratings
1 star 2 stars 3 stars 4 stars 5 stars
comments

Love Comes In Spurts Tab

Intro:
e---12---------12-------12--------------|
B------11----------11-------11----------|
G----------10--------------------10-----|
D---------------------------------------|
A---------------------------------------|
E---------------------------------------|
Play that a few times then go into the verse, which is just A,C,D,F
The lead guitar plays this:
e-------------------------------------------------------------|
B-2-2----------5-5-5-5-5--5-5-4-4------4-4--10-10-10-10-10----|
G-2-2-----2-2--5-5-5-5-5----------7-7-------10-10-10-10-10----|
D-2-2-----2-4--5-5-5-5-5--------------------10-10-10-10-10----|
A-0-0-3-4-0-0--5-5-5-7-5--------------------10-10-10-12-10----|
E-------------------------------------------------------------|
The Chorus is just
G-----7------------|
D-7-7-7------------|
A-7-7-5------------|
E-5-5--------------|
The guitarist does a litte riff after the D chord, but its hard to figure out. I 
figure out the solo either.
[ Tab from: http://www.guitartabs.cc/tabs/r/richard_hell/love_comes_in_spurts_tab.html ]
Comments