Richard Hell - Im Your Man Chords & Tabs

 

Im Your Man Chords & Tabs

Richard Hell Chords & Tabs

Version: 1 Type: Tab 0 ratings
1 star 2 stars 3 stars 4 stars 5 stars
comments

Im Your Man Tab

   
RICHARD HELL & THE VOIDOIDS
"I'm Your Man"
Blank Generation
tabbed by: primusfan

Probably not 100%, but close enough.


[INTRO]

F#/G/A

[CHORUS]

C#m/G#/C#m/G#/C#m/A/E/G#

C#m/A/E/A/E/G#

[VERSE]

E/C/A
E/C/A
E/C/A
F#/G/A

[SOLO I]

E-4---------------4--------------------------5----------5p4---4-------------|
B---5---------------5--------------------------5------5-----5---------------|
G-----8-5h8p5---6------8-5h8p5-------6-6---------6--------------6-6b7r6p5---|
D-------------6-----------------6--------6-7-------7----------------------6-|
A---------------------------------------------------------------------------|
E---------------------------------------------------------------------------|
[ Tab from: http://www.guitartabs.cc/tabs/r/richard_hell/im_your_man_tab.html ]
E-----------------------------------|------------------------------12-11~---|
B-------------5-7-7b9-7b9-7b9r7p5---|---------------------------------------|
G---4-6-6--s6---------------------6-|-4-6-4---------------------------------|
D-6---------------------------------|-------6-5-4---4-----------------------|
A-----------------------------------|-------------7---7-4-------------------|
E-----------------------------------|---------------------7-4-0-------------|


[SOLO II]

E-------6------------------6----4p3p0------------------------|-----------------------------------------------------|
B----5--7b8----5--------5--7b8----------5--------------------|-5s2-2--5--------------------------------------------|
G-s6--------s6--------6---------------6---6-4----------------|-0---0--0--6--4b6~----------------------4-6---6------|
D-s6--------s6-------s6-----------------------5-4----6-------|-5s2-2--5--6------------------------4-6---------6~~~-|
A----------------7--------------------------------7----7--4--|-------------------------4p2----5-6------------------|
E------------------------------------------------------------|------------------0-2-4------4-----------------------|

End on E. 

Wow that second solo's tough as shit to tab. Hope it sounds decent. E-mail my ass with
corrections: primusfan28@gmail.com, or just PM me if you're a UG member. Why do I spend
so much time on tabs that will never be seen?:\
Comments