Richard Hell - Blank Generation Chords & Tabs

 

Blank Generation Chords & Tabs

Richard Hell Chords & Tabs

Version: 1 Type: Tab 0 ratings
1 star 2 stars 3 stars 4 stars 5 stars
comments

Blank Generation Tab

   
i havent seen any tabs for these guys..which is a shame...but i think this is right.
The words might not be all the way right but i tried. 

INTRO
rhythm guitar 3x
e|-----------------------------------------------------------------------------
B|-----------------------------------------------------------------------------
G|-0-3p00-7676---54-44-22222-4-------------------------------------------------
D|-0-3p00-7676-7-54-44-22222-4-------------------------------------------------
A|-------------7---------------------------------------------------------------
E|-----------------------------------------------------------------------------

lead guitar (on 2nd time)
e|-----------------------------------------------------------------------------
B|-----------------------------------------------------------------------------
G|7b8r7------------------------------------------------------------------------
D|-----------------------------------------------------------------------------
A|-----------------------------------------------------------------------------
E|-----------------------------------------------------------------------------

lead guitar (on 3rd time)
e|-----------------------------------------------------------------------------
B|-----------------------------------------------------------------------------
G|4-4--4-44-2------------------------------------------------------------------
D|-----------------------------------------------------------------------------
A|-----------------------------------------------------------------------------
E|-----------------------------------------------------------------------------

VERSE

e|--------
B|--------
G|--22----
D|4---4---
A|--------
E|--------
[ Tab from: http://www.guitartabs.cc/tabs/r/richard_hell/blank_generation_tab.html ]
B       A              G      F# 
   I was sayin' let me out of here before i was
B       A                G              F# 
   even born, it's such a gamble when you get a face
B            A           G              F#
   it's fascinatin' to observe what the miror does but
B           A              G           F#     
   when I dine its for the wall that i set a place

Chorus
B         A            G F#
   I belong to the blank generation and
B        A          G             F#
   I can take it or leave it each time 
B       A             G F#
   I belong to the... generation
B            F#         B 
   and I can take it or leave it each time.

1st solo (i probably messed up on this one)
r|-14b--11--9-----------------------------------------------------------------
B|-15b--12-10-12-10-----1210--1210---12p10-----12-----------------------------
G|------------11-9--11--11-91111-911-11--911p9-11-1412-11-11------------------
D|------------------11------11----11------11-9----1412-11-11------------------
A|----------------------------------------------------------------------------
E|----------------------------------------------------------------------------

repeat chord progression with these lyrics. sorry, but the second solo is beyond me, if anyone
can figure it out then please add it and repost this.

verse 2
Triangles were fallin at the window as the doctor cursed 
He was a cartoon long forsaken by the public eye 
The nurse adjusted her garters as I breathed my first 
The doctor grabbed my throat and yelled, "God's consolation prize"

Chorus

verse 3
To hold the t.v. to my lips, the air so packed with cash 
then carry it up flights of stairs and drop it in the vacant lot 
To lose my train of thought and fall into your arms' tracks 
and watch beneath the eyelids every passing dot 

chorus 2x

 correctons or coments email me at kashia326@aol.com 
   thanx.
Comments