Rice Damien - Blowers Daughter Chords & Tabs

 

Blowers Daughter Chords & Tabs

Rice Damien Chords & Tabs

Version: 1 Type: Tab 3 ratings
1 star 2 stars 3 stars 4 stars 5 stars
comments

Blowers Daughter Tab

   
Blowers Daughter
listen to the song for strumming 

and so it is...   just like you said it would be...   life goes easy on me....     most...
    
     E                                    Aadd9                          Badd11      Aadd9
-----0------------------------------------0------------------------------0-----------0--------
-----0------------------------------------0------------------------------0-----------0--------
-----1------------------------------------6------------------------------8-----------6--------
-----2------------------------------------7------------------------------9-----------7--------
-----2------------------------------------7------------------------------9-----------7--------
-----0------------------------------------5------------------------------7-----------5--------



of the time......                                and so it is...........  (repeat for verses this                   
                                                                            chord sequence...until)  
        E               Emaj7          E                                                             
--------0-----------------0------------0-------------------------------------------------------
--------0-----------------0------------0-------------------------------------------------------
--------1-----------------1------------1-------------------------------------------------------
--------2-----------------0------------2-------------------------------------------------------
--------2-----------------2------------2-------------------------------------------------------
--------0-----------------0------------0-------------------------------------------------------


[ Tab from: http://www.guitartabs.cc/tabs/r/rice_damien/blowers_daughter_tab.html ]
no hero in her skies.....          can't take my eyes of you.....   (chords below this text for 
                                                                     each repeat of "can't take my
                                                                     eyes off you)
                                                                 (                                )
                C#m                                Aadd9         (G#?  F#?  E  Aadd9 Badd11 Aadd9 )      

-----------------4-----------------------------------0-------------0----0----0----0----0-----0-----
-----------------5-----------------------------------0-------------0----0----0----0----0-----0-----
-----------------6-----------------------------------6-------------4----2----1----6----8-----6-----
-----------------6-----------------------------------7-------------6----4----2----7----9-----7-----
-----------------4-----------------------------------7-------------6----4----2----7----9-----7-----
-----------------4-----------------------------------5-------------4----2----0----5----7-----5-----


Repeat verses and chorus etc. until


Did i say that i loathe you...       did i say that i want to...      leave it all behind........

    F#              B                                 G#m             C#              D#m
-----2--------------2---------------------------------4----------------4--------------6------------
-----2--------------4---------------------------------4----------------6--------------7------------
-----3--------------4---------------------------------4----------------6--------------8------------
-----4--------------4---------------------------------6----------------6--------------8------------
-----4--------------2---------------------------------6----------------4--------------6------------
-----2--------------2---------------------------------4----------------4--------------6------------


i can't take my eyes of you.....    (chords below for repeats of "can't take my eyes of you")
                                    
    B                                 A#m      G#m      F#

----7----------------------------------6--------4-------2-----------------
----7----------------------------------6--------4-------2-----------------
----8----------------------------------6--------4-------2-----------------
----9----------------------------------8--------6-------4-----------------
----9----------------------------------8--------6-------4-----------------
----7----------------------------------6--------4-------2-----------------


end.                                      




Comments