Ricardo Arjona - Minutos Chords & Tabs

 

Minutos Chords & Tabs

Ricardo Arjona Chords & Tabs

Version: 2 Type: Tab 0 ratings
1 star 2 stars 3 stars 4 stars 5 stars
comments

Minutos Tab

   
E-------------------2-----------------4-------------------0---------------|
A--2----------------------------------------------------------------------|
D------4-------4---------4--------4--------4---------4--------4--------4--|
g-------------------------------------------------------------------------|
b-----------0-----------------0-----------------0------------------0------|
e-------------------------------------------------------------------------|


E-------------------2-----------------4-------------------0--------------|
A--2---------------------------------------------------------------------|
D------4-------4---------4--------4--------4---------4--------4--------4-|
g------------------------------------------------------------------------|
b-----------0-----------------0-----------------0------------------0-----|
e------------------------------------------------------------------------|
                                                             El reloj de
E-------------------2-----------------4-------------------0--------------|
A--2---------------------------------------------------------------------|
D------4-------4---------4--------4--------4---------4--------4--------4-|
g------------------------------------------------------------------------|
b-----------0-----------------0-----------------0------------------0-----|
e------------------------------------------------------------------------|
 pared              anunciando    las    6 23            el pasado con

E-------------------2-----------------4-------------------0--------------|
A--2---------------------------------------------------------------------|
D------4-------4---------4--------4--------4---------4--------4--------4-|
g------------------------------------------------------------------------|
b-----------0-----------------0-----------------0------------------0-----|
e------------------------------------------------------------------------|
  sed       y  el   presente   es   un  atleta  sin   pies           ya

E-------------------2-----------------4-------------------0--------------|
A--2---------------------------------------------------------------------|
D------4-------4---------4--------4--------4---------4--------4--------4-|
g------------------------------------------------------------------------|
b-----------0-----------------0-----------------0------------------0-----|
e------------------------------------------------------------------------|
 son   las   6  6 43  y  el  cadaver   del  minuto  que  paso  me dice


E-------------------2-----------------4-------------------0--------------|
A--2---------------------------------------------------------------------|
D------4-------4---------4--------4--------4---------4--------4--------4-|
g------------------------------------------------------------------------|
b-----------0-----------------0-----------------0------------------0-----|
e------------------------------------------------------------------------|
   si se  vive   aqui   te  guste o  no  y  la  nostalgia pone casa en mi

E-------------------2-----------------4-------------------0--------------|
A--2---------------------------------------------------------------------|
D------4-------4---------4--------4--------4---------4--------4--------4-|
g------------------------------------------------------------------------|
b-----------0-----------------0-----------------0------------------0-----|
e------------------------------------------------------------------------|
 cabeza                                          y   dan   las   6   con


E-------------------2-----------------4-------------------0--------------|
A--2---------------------------------------------------------------------|
D------4-------4---------4--------4--------4---------4--------4--------4-|
g------------------------------------------------------------------------|
b-----------0-----------------0-----------------0------------------0-----|
e------------------------------------------------------------------------|
  50                                                quien  te  dijo  que


E-------------------2-----------------4-------------------0--------------|
A--2---------------------------------------------------------------------|
D------4-------4---------4--------4--------4---------4--------4--------4-|
g------------------------------------------------------------------------|
b-----------0-----------------0-----------------0------------------0-----|
e------------------------------------------------------------------------|
  yo   era   el   sueņo   que   soņaste   una   vez  quien   dijo   que

E-------------------2-----------------4-------------------0--------------|
A--2---------------------------------------------------------------------|
D------4-------4---------4--------4--------4---------4--------4--------4-|
g------------------------------------------------------------------------|
b-----------0-----------------0-----------------0------------------0-----|
e------------------------------------------------------------------------|
 tu     voltiarias     mi      futuro          alrevez

E-------------------2-----------------4-------------------0--------------|
A--2---------------------------------------------------------------------|
D------4-------4---------4--------4--------4---------4--------4--------4-|
g------------------------------------------------------------------------|
b-----------0-----------------0-----------------0------------------0-----|
e------------------------------------------------------------------------|
  ya   son  las   7  16   y  el  cadaver  del  minuto  que paso me dice

E-------------------2-----------------4-------------------0--------------|
A--2---------------------------------------------------------------------|
D------4-------4---------4--------4--------4---------4--------4--------4-|
g------------------------------------------------------------------------|
b-----------0-----------------0-----------------0------------------0-----|
e------------------------------------------------------------------------|
  tu estrategia te arruino no queda  mas  que  ir  aprendiendo a vivir

E-------------------2-----------------4-------------------0--------------|
A--2---------------------------------------------------------------------|
D------4-------4---------4--------4--------4---------4--------4--------4-|
g------------------------------------------------------------------------|
b-----------0-----------------0-----------------0------------------0-----|
e------------------------------------------------------------------------|
 solo                                            si te quedan agallas

E-------------------2-----------------4-------------------0--------------|
A--2---------------------------------------------------------------------|
D------4-------4---------4--------4--------4---------4--------4--------4-|
g------------------------------------------------------------------------|
b-----------0-----------------0-----------------0------------------0-----|
e------------------------------------------------------------------------|

Gm#                   F#
  La casa no es otra cosa
E                           B-F#-Gm#
  que un cementerio de historias
                   F#
  enterradas en fosas
E                           F#
  que algunos llaman memorias
    B                       F#
  minutos como sal en la herida
                  Gm#
  se me pasa la vida
                  E   F#
  gastando el reloooouooj
     B                         F#
  minutos son la morge del tiempo
                     Gm#
  cadaveres de momentos
                     E
  que no vuelven jamas
                         F#        B
  no hay reloj que de vuelta hacia atras
[ Tab from: http://www.guitartabs.cc/tabs/r/ricardo_arjona/minutos_tab_ver_2.html ]
E-------------------2-----------------4-------------------0---------------|
A--2----------------------------------------------------------------------|
D------4-------4---------4--------4--------4---------4--------4--------4--|
g-------------------------------------------------------------------------|
b-----------0-----------------0-----------------0------------------0------|
e-------------------------------------------------------------------------|


E-------------------2-----------------4-------------------0--------------|
A--2---------------------------------------------------------------------|
D------4-------4---------4--------4--------4---------4--------4--------4-|
g------------------------------------------------------------------------|
b-----------0-----------------0-----------------0------------------0-----|
e------------------------------------------------------------------------|
                                                            como   duele
E-------------------2-----------------4-------------------0---------------|
A--2----------------------------------------------------------------------|
D------4-------4---------4--------4--------4---------4--------4--------4--|
g-------------------------------------------------------------------------|
b-----------0-----------------0-----------------0------------------0------|
e-------------------------------------------------------------------------|
 gastar   el  instante en el que   tu  ya  no   estas    como      cuesta

E-------------------2-----------------4-------------------0--------------|
A--2---------------------------------------------------------------------|
D------4-------4---------4--------4--------4---------4--------4--------4-|
g------------------------------------------------------------------------|
b-----------0-----------------0-----------------0------------------0-----|
e------------------------------------------------------------------------|
   luchar     con    las      cosas    que     no    vuelven    mas   ya
E-------------------2-----------------4-------------------0---------------|
A--2----------------------------------------------------------------------|
D------4-------4---------4--------4--------4---------4--------4--------4--|
g-------------------------------------------------------------------------|
b-----------0-----------------0-----------------0------------------0------|
e-------------------------------------------------------------------------|
 son   las  9  23   y   el  cadaver  del    minuto    que    paso    se

E-------------------2-----------------4-------------------0--------------|
A--2---------------------------------------------------------------------|
D------4-------4---------4--------4--------4---------4--------4--------4-|
g------------------------------------------------------------------------|
b-----------0-----------------0-----------------0------------------0-----|
e------------------------------------------------------------------------|
 burla   de  mis  ganas  de  besar  la  foto  que  dejaste  puesta en el
E-------------------2-----------------4-------------------0---------------|
A--2----------------------------------------------------------------------|
D------4-------4---------4--------4--------4---------4--------4--------4--|
g-------------------------------------------------------------------------|
b-----------0-----------------0-----------------0------------------0------|
e-------------------------------------------------------------------------|
 buro                                          mi  soledad es tu venganza

E-------------------2-----------------4-------------------0--------------|
A--2---------------------------------------------------------------------|
D------4-------4---------4--------4--------4---------4--------4--------4-|
g------------------------------------------------------------------------|
b-----------0-----------------0-----------------0------------------0-----|
e------------------------------------------------------------------------|

Gm#                     F#
  El ministerio del tiempo
E                      B-F#-Gm#
  puso sede en mi almohada
                           F#
  ahi te encuentro a momentos
E                        F#
  aunque no sirve de nada

    B                       F#
  minutos como sal en la herida
                 Gm#
  se me pasa la vida
                  E   F#
  gastando el reloooouooj
     B                         F#
  minutos son la morge del tiempo
                     Gm#
  cadaveres de momentos
                     E
  que no vuelven jamas
                         F#        B
  no hay reloj que de vuelta hacia atras

B                         F#
 Minutos que se burlan de mi
                        Gm#
 minutos como furia de mar
                           A               E         B
 minutos pasajeros de un tren que no va a ningun lugar
                         F#
 minutos como lluvia de sal
                           Gm#
 minutos como fuego en la piel
                           A         E          B
 minutos forasteros que vienen y se van sin decir
                           F#
 minutos que me duelen sin ti
                           Gm#
 minutos que no pagan pension
                            A          E          B
 minutos que al morir formaran el batallon del ayer
                          F#
 minutos que se roban la luz
                          Gm#
 minutos que me oxidan la fe
                          A               E         B
 minutos inquilinos del tiempo mientras puedan durar
                           F#
 minutos que disfrutan morir
                          Gm#
 minutos que no tienen lugar
                              A                     B
 minutos que se estrellan em mi son camicases de dios

E-------------------2-----------------4-------------------0---------------|
A--2----------------------------------------------------------------------|
D------4-------4---------4--------4--------4---------4--------4--------4--|
g-------------------------------------------------------------------------|
b-----------0-----------------0-----------------0------------------0------|
e-------------------------------------------------------------------------|


E-------------------2-----------------4-------------------0--------------|
A--2---------------------------------------------------------------------|
D------4-------4---------4--------4--------4---------4--------4--------4-|
g------------------------------------------------------------------------|
b-----------0-----------------0-----------------0------------------0-----|
e------------------------------------------------------------------------|
E-------------------2-----------------4-------------------0---------------|
A--2----------------------------------------------------------------------|
D------4-------4---------4--------4--------4---------4--------4--------4--|
g-------------------------------------------------------------------------|
b-----------0-----------------0-----------------0------------------0------|
e-------------------------------------------------------------------------|


E-------------------2-----------------4-------------------0--------------|
A--2---------------------------------------------------------------------|
D------4-------4---------4--------4--------4---------4--------4--------4-|
g------------------------------------------------------------------------|
b-----------0-----------------0-----------------0------------------0-----|
e------------------------------------------------------------------------|

E--------------|
A-------2------|
D-------4------|
g-------4------|
b--------------|
e--------------|
Comments