Rhoads Randy - Dee Chords & Tabs

 

Dee Chords & Tabs

Rhoads Randy Chords & Tabs

Version: 1 Type: Tab 2 ratings
1 star 2 stars 3 stars 4 stars 5 stars
comments

Dee Tab

   

dee.tab



A:link {
	FONT-WEIGHT: bold; COLOR: black; TEXT-DECORATION: none
}
A:active {
	FONT-WEIGHT: bold; COLOR: black; TEXT-DECORATION: none
}
A:visited {
	FONT-WEIGHT: bold; COLOR: black; TEXT-DECORATION: none
}
A:hover {
	FONT-WEIGHT: bold; COLOR: black; TEXT-DECORATION: underline
}

Artist:	Randy Rhodes
Song:	Dee
Transcription by: KrOnK
=================================
h = Hammer-on
p = Pull-off
Sl = Slide (--10~8--)
NH = Natural harmonic
Arp = arpeggiate
=================================
Listen to the recording to get the timing.
Rests and real timing are not shown in this transcription. 
Play it by feel for best results. 
Send comments, suggestions or corrections to:
Kronk911@hotmail.com
 
(Let ring throughout)
[ Tab from: http://www.guitartabs.cc/tabs/r/rhoads_randy/dee_tab.html ]
           H            NH(Arp)                        Sl       Sl             
E----7--------7---------7---------|-7----7---10----10----------12~11-12----------
B---------7-8----10-----7---------|-----7-7-------8--8-------10------------------
G-------7---------------7---------|----7---------7----------9--------------------
D-----------------------7---------|-9---------9--------9~11----------------------
A---10-----------9----------------|----------------------------------------------
E---------------------------------|----------------------------------------------
 
           h                                           p
E---7---------7-------------------|---------0------------------------0-----------
B---------7-8----10-----8-----8---|-7--5--3--------5--5-3-2-3-3----3--3----------
G-------7-------------------6-----|-------------4-----------------2-2--2---------
D---------------------------------|------------------------------0---------------
A---10-----------9------7---------|-5--4--2-----------0--------------------------
E---------------------------------|---------3-----------------2------------------
 
   h p p                                            p   p              Sl    NH      
E-2-3-2-0--2------2---------------|-0--3--3-----3--3-2-2-0----0--------------12--
B---------------0---0----------0--|------------0-0----------3------2---2~x-------
G-------------2-------------------|-----------0----------------------0-------12--
D----------1----------------------|----------------------------------------------
A----------------------2----------|--------------------4-----------0-------------
E---------------------------------|-2--2--0--------------------------------------
 
   h p p  p p   p  p                 h p                            h p
E---------------------------2--3--|-5-7-5--------0-------2--3--5---7-9-7--------0
B---------------------------3--5--|---------3---3-3------3--5--7----------2----3-
G-2-4-2-0-------------------------|------------0-----------------------------0---
D---------4-2-0--------0----------|-------------------0--------------------------
A---------------4-2-0-------------|---------2-----------------------------0------
E---------------------------------|----------------------------------------------
   p   p   p   p      Sl        p   Sl                         p      p       NH(Arp)
E-5-3-3-2-2-0-2-0---0--------0------------------|-----------|-3-2----2-0------7--
B-----------------3---5~3--3---2-0--3~5--2----3-|-3---------|-----------------7--
G-------------------------------------------0---|---2-------|-----------------7--
D-0---------------------------------------------|-----0-----|-----------------7--
A-------------4------------2-------------0------|-------2---|--------4-----------
E-----------------------------------------------|-2---------|-0------------------
 

 
 
Comments