Rhino Bucket - Stomp Chords & Tabs

 

Stomp Chords & Tabs

Rhino Bucket Chords & Tabs

Version: 1 Type: Tab 0 ratings
1 star 2 stars 3 stars 4 stars 5 stars
comments

Stomp Tab

RHINO BUCKET
from the album  "GET USED TO IT" 

1st time tabbing a song.  Would appreciate any RHINO BUCKET tabs
ou8121207@yahoo.com   Scott 

Palm Mute the E string/Bass  as for  g & d strike then deaden with index. 
e ------------------------------------------------------------------------------------------------------------------
b -------------------------------------------------------------------------------------------------------------------
g ---------0--------0-----------------0----------0----------------0--------0-------------0--------0--------------
d ---------0--------0-----------------0----------0----------------0--------0-------------0--------0--------------
a  ------------------------------------------------------------------------------------------------------------------
e --P.M.----0 0-------0 0 0 0----------0 0---------0 0 2 3--------0 0------0-0 0 0------0 0 --------0 0 0 0


e -------------------------------------------------------------------------------------------------------------------
b -------------------------------------------------------------------------------------------------------------------
g ---------0--------0-----------------0----------0----------------0--------0-------------0--------0--------------
d ---------0--------0-----------------0----------0----------------0--------0-------------0--------0--------------
a  ------------------------------------------------------------------------------------------------------------------
e ------------0 0-------0 0 0 0----------0 0---------0 0 2 3--------0 0------0-0 0 0------0 0 --------0 0 0 0

[ Tab from: http://www.guitartabs.cc/tabs/r/rhino_bucket/stomp_tab.html ]
e ------------------------------------------------------------------
b ------------------------------------------------------------------       LEAD GUITAR ENTERS
g ---------0--------0-----------------0----------0----------------          
d ---------0--------0-----------------0----------0----------------        RYTHM PATTERN CONTINUES
a  ------------------------------------------------------------------        
e ------------0 0-------0 0 0 0----------0 0---------0 0 2 3-----        THROUGH OUT 

LEAD GUITAR

e -----------------------------------------------------------------------------------------------------------
b ----------------------------------------------------------------------------------------------------------
g ------------------------------------------4--------6-/slide-7--7   7----9------------------------------     REPEAT 
d -------------------------------------7-------------6 /slide-7--7   7----9-----7---8 / 9 (sustain)--
a ---~~~~~~~~~~~~~~~~~~-----------------4 /slide-5--5   5----7-----7---8 / 9---------------
e ---------------------------------------------------------------------------------5---6 / 7----------------
              ~~~  Pick Scrape  ~~~

e -----------------------------------------------------------------------------------------------------------
b ----------------------------------------------------------------------------------------------------------       REPEAT  
g ------------------------------------------4--------6-/slide-7--7   7----9------------------------------    throughout 
d -------------------------------------7-------------6 /slide-7--7   7----9-----7---8 / 9 (sustain)--9\ 8 (sustain) 
a ----------------------------------------------------4 /slide-5--5   5----7-----7---8 / 9---------------9\ 8
e ---------------------------------------------------------------------------------5---6 / 7---------------7\ 6

crank up the amp and let it rip !!!                 
Comments