Rhapsody - Trolls In The Dark Chords & Tabs

 

Trolls In The Dark Chords & Tabs

Rhapsody Chords & Tabs

Version: 1 Type: Bass Tab 0 ratings
1 star 2 stars 3 stars 4 stars 5 stars
comments

Trolls In The Dark Bass Tab

G||------------------|------|------|------|------|------|------|------|------|
D||------------------|------|------|------|------|------|------|------|------|
A||------------------|------|------|------|------|------|------|------|------|
E||------------------|------|------|------|------|------|------|------|------|


                                                                      
------|------|------|------|------|------|------|--------------------|
------|------|------|------|------|------|------|--------------------|
------|------|------|------|------|------|------|-----0--------------|
------|------|------|------|------|------|------|--0-----------------|


                                                                 
---------------------|--------------------|---------------------|
---------------------|--------------------|---------------------|
---------1----0------|-----0--------------|---------1----0------|
----4----------------|--0-----------------|----4----------------|


                                                             
-------------------|-------------------|--------------------|
-------------------|-------------------|------2--------1----|
------1------------|------0------------|--------------------|
-------------------|-------------------|--------------------|


                                                                                
-------------------------|--------------------------|--------------------------|
------0------------------|-----2-----2-----2-----2--|-----0-----0-----2-----2--|
----------------0--------|--0-----0-----0-----0-----|--------2-----0-----0-----|
-----------3-------------|--------------------------|--4-----------------------|


                                                      
--------------------------|--------------------------|
-----2-----2-----2-----2--|-----0-----0-----2-----2--|
--0-----0-----0-----0-----|--------2-----0-----0-----|
--------------------------|--4-----------------------|


                                                      
--------------------------|--------------------------|
-----3-----3-----3-----3--|-----2-----2-----2-----2--|
--1-----1-----1-----1-----|--0-----0-----0-----0-----|
--------------------------|--------------------------|


                                                                            
-----4-----4-----3-----3--|-----2-----------------||-----------------------|
--2-----2-----1-----1-----|--0--------0-----------||*----------------------|
--------------------------|--------------0--------||*--0---------0---------|
--------------------------|--------3--------------||--------0---------4----|


                                                                       
----------------------|----------------------|-----------------------||
----------------------|--0---------0---------|--0----3----2---------*||
--0----3----2----0----|-------0---------0----|-----------------3----*||
----------------------|----------------------|-----------------------||


                                                                    
----------------------||----------------------|--------------------|
--0----3----2---------||*------------2--------|--0-----------------|
-----------------3----||*-------0-------------|-----------0--------|
----------------------||---0------------------|--------------------|


                                                                 
--------------------|---------------------|--------------------||
-----------2--------|--0--------1---------|-------------------*||
--------------------|----------------2----|-------------------*||
--2-----------------|---------------------|--0-----------------||


                                                                      
-----------------------|----------------------|----------------------|
*----------------------|----------------------|--0---------0---------|
*--0---------0---------|--0----3----2----0----|-------0---------0----|
--------0---------4----|----------------------|----------------------|


                                                                     
-----------------------||----------------------|--------------------|
--0----3----2---------*||--0----3----2---------|--3--------2--------|
-----------------3----*||-----------------3----|--------------------|
-----------------------||----------------------|--------------------|


                                                                  
--------------------|----------------------|---------------------|
--0-----------------|--0-------------------|--0------------------|
-----------3--------|-------2----3----0----|-------2----0--------|
--------------------|----------------------|---------------------|

[ Tab from: http://www.guitartabs.cc/tabs/r/rhapsody/trolls_in_the_dark_btab.html ]
                                                               
-------------------|--------------------|---------------------|
-------------------|--------------------|---------------------|
------0------------|-----0--------------|---------1----0------|
-------------------|--0-----------------|----4----------------|


                                                               
--------------------|---------------------|-------------------|
--------------------|---------------------|-------------------|
-----0--------------|---------1----0------|------1------------|
--0-----------------|----4----------------|-------------------|


                                                                   
-------------------|--------------------|-------------------------|
-------------------|------2--------1----|------0------------------|
------0------------|--------------------|----------------0--------|
-------------------|--------------------|-----------3-------------|


                                                      
--------------------------|--------------------------|
-----2-----2-----2-----2--|-----0-----0-----2-----2--|
--0-----0-----0-----0-----|--------------0-----0-----|
--------------------------|--4-----7-----------------|


                                                      
--------------------------|--------------------------|
-----2-----2-----2-----2--|-----0-----0-----2-----2--|
--0-----0-----0-----0-----|--------2-----0-----0-----|
--------------------------|--4-----------------------|


                                                      
--------------------------|--------------------------|
-----3-----3-----3-----3--|-----2-----2-----2-----2--|
--1-----1-----1-----1-----|--0-----0-----0-----0-----|
--------------------------|--------------------------|


                                                                            
-----4-----4-----3-----3--|-----2-----------------||-----------------------|
--2-----2-----1-----1-----|--0--------0-----------||*----------------------|
--------------------------|--------------0--------||*--0---------0---------|
--------------------------|--------3--------------||--------0---------4----|


                                                                       
----------------------|----------------------|-----------------------||
----------------------|--0---------0---------|--0----3----2---------*||
--0----3----2----0----|-------0---------0----|-----------------3----*||
----------------------|----------------------|-----------------------||


                                                                    
----------------------||----------------------|--------------------|
--0----3----2---------||*------------2--------|--0-----------------|
-----------------3----||*-------0-------------|-----------0--------|
----------------------||---0------------------|--------------------|


                                                                 
--------------------|---------------------|--------------------||
-----------2--------|--0--------1---------|-------------------*||
--------------------|----------------2----|-------------------*||
--2-----------------|---------------------|--0-----------------||


                                                                      
-----------------------|----------------------|----------------------|
*----------------------|----------------------|--0---------0---------|
*--0---------0---------|--0----3----2----0----|-------0---------0----|
--------0---------4----|----------------------|----------------------|


                                                                     
-----------------------||----------------------|--------------------|
--0----3----2---------*||--0----3----2---------|--3--------2--------|
-----------------3----*||-----------------3----|--------------------|
-----------------------||----------------------|--------------------|


                                                                  
--------------------|----------------------|---------------------|
--0-----------------|--0-------------------|--0------------------|
-----------3--------|-------2----3----0----|-------2----0--------|
--------------------|----------------------|---------------------|


                                                              
-------------------|--------------------|--------------------|
-------------------|--------------------|--------------------|
------0------------|--------------------|--------------0--0--|
-------------------|--------------0--0--|--------------------|


                     
-------------------|------------------||
-------------------|------------------||
--------------0----|------------------||
-------------------|------------------||
Comments