Rhapsody - Riding The Winds Of Eternity Chords & Tabs

 

Riding The Winds Of Eternity Chords & Tabs

Rhapsody Chords & Tabs

Version: 1 Type: Tab 0 ratings
1 star 2 stars 3 stars 4 stars 5 stars
comments

Riding The Winds Of Eternity Tab

RHAPSODY - RIDING THE WINDS OF ETERNITY
Music:Staropoli and Turilli

Transcribed By: Niclas Buss
Email: Nbjbuss@hotmail.com

Please mail me if you find mistakes!

Normal Tuning
	        Riff 1
E----------------------------------------------------------------------------------|
B----Intro----|--------------------------------------------------------------------|
G--Orchestra--|--------------------------------------------------------------------|
D--(52-sec.)--|--------------------------------------------------------------------|
A-------------|--5-5-5-5-5-5-5-5-5-------------------------------------------------|
E----------------------------------6-6-6-6-6-6-6-6-6-6-4-4-4-4-4-4-4-4-4-4-0-0-0-0-|
		pm.................................................................

			  end Riff 1   Verse 1
E----------------------------------------------------------------------------------|
B------------------------------------|---------------------------------------------|
G------------------------------------|---------------------------------------------|
D-------------------------3--5--7----|---5-----------------------------------------|
A----------------7--3--2--1--3--5----|---3----5-5-5-5-5-5-5-5-5-5-5-5-5-5-5-5-5-5--|
E-0-0-0-0-0-0----5--1--0-----------------------------------------------------------|
 .............|				     pm..................................|

E----------------------------------------------------------------------------------|
B--------------------------------------------------3-------------------------------|
G----------------------------------------------------5-----------------------------|
D-5----------------------------------------------5------3------8-6-----------------|
A-3----5-5-5-5-5-5-5-5-5-5-5-5-5-5-5-5-5-5---3---3------1---6----------------------|
E--------------------------------------------1--------------4--------2-2-2-2-2--2--|
      pm..................................|			    pm.............

E----------------------------------------------------------------------------------|
B------------------------------------------------------------------------1---1-----|
G------------------------------------------------------------------------2---2-----|
D------------------------------------------------------------------------3---3-----|
A------------------------------------------------------------------------3---3-----|
E--2--2--2--2--2---6-6-6-6-6--6--6--6--6--6--6---1--1--1--1--1--1--1--1----1---1--1|
 .......................................................................|  pm pm...

				      Chorus
E----------------------------------------------------------------------------------|
B-----|----------|-----------|------|----------------------------------------------|
G-----|--Riff-1--|--Verse-2--|--8\--|----------------------------------------------|
D-----|----------|-----------|--7\--|----------------------------------------------|
A-----|----------|-----------|--9\--|--4-4-4-4-4-4-4-4-4-4-4-4-4-4-4-4-4-----------|
E-1----------------------------------------------------------------------4-4-4-4-4-|
 ..|				      pm...........................................

E----------------------------------------------------------------------------------|
B----------------------------------------------------------------------------------|
G----------------------------------------------------------------------------------|
D---------------------------------------------------------------------------2--4---|
A-------------------------------------------------4-4-4-4-4-4-4-4-4-4-4-4---0--2---|
E-4-4-4-4-4-4-4-4-4-4-4-4-5-5-5-5-5-5-5-5-5-5-5-5----------------------------------|
 ........................................................................|

         end Chorus
E----------------------------------------------------------------------------------|
B-------------------|--------------------------------------------------------------|
G-------------------|--------------------------------------------------------------|
D------4--5------5--|--6--------10-------------------------------------------------|
A--2---2--3--6---3--|--4---6-----8---10---4-4-4-4-4-4-4-4-----------------8-8-8-8-8|
E--0---------4-------------4----------8-------------------4-4-4-4-4-4-4-4----------|
					 pm........................................						
	
E----------------------------------------------------------------------------------|
B----------------------------------------------------------------------------------|
G----------------------------------------------------------------------------------|
D----------------------------------------------------------------------------------|
A-8-8-8-------------------6-6-6-6-6-6-6-6-6-6-6-6-6-6-6-6-6-6----------------------|
E-------8-8-8-8-8-8-8-8---------------------------------------3-3-3-3-3-3-3-3-3-3-3|
 ......................| pm........................................................
[ Tab from: http://www.guitartabs.cc/tabs/r/rhapsody/riding_the_winds_of_eternity_tab.html ]
E----------------------------------------------------------------------------------|
B-----------------------------------------------------------------|----------------|
G-----------------------------------------------------------------|----Orhestra----|
D---------------------------------------------------------2-------|----------------|
A-------------5-5-5-5-5-5-5-5-5-5-5-4-4-4-4-4-4-4-4-4-4---0---5~--|----------------|
E-3-3-3-3-3-3----------------------------------------------------------------------|
 .......................................................|

  w/Riff 2
E--------------10------------------------------------------------------------------|
B-----------10----12-13---------------------------------11-10-10-------------------|
G--10----10--------------12--10--9-------------------10----------9-10-9----9--10---|
D-----10---------------------------12--10---12----12--------------------12-------10|
A----------------------------------------------12----------------------------------|
E----------------------------------------------------------------------------------|

E-------10----------------------------------10-13-12-12-10-------------------------|
B----10----12-13---------------10--11----11----------------10-13----14~----16~-----|
G-10-------------12--10--9--12--------12-------------------------------------------|
D----------------------------------------------------------------------------------|
A----------------------------------------------------------------------------------|
E----------------------------------------------------------------------------------|

E----------------------------------------------------------------------------------|
B----------|-----------------------------------------------------------------------|
G--Chorus--|-----------------------------------------------------------------------|
D----------|-----------------------------------------------------------------------|
A----------|--4-4-4-4-4-4-4-4-----------------8-8-8-8-8-8-8-8--------------------6-|
E-----------------------------4-4-4-4-4-4-4-4-----------------8-8-8-8-8-8-8-8------|
	     pm...............................................................| pm.

E----------------------------------------------------------------------------------|
B----------------------------------------------------------------------------------|
G----------------------------------------------------------------------------------|
D----------------------------------------------------------------------------------|
A-6-6-6-6-6-6-6-6-6-6-6-6-6-6-6-6-6-----------------------------------5-5-5-5-5-5-5|
E-----------------------------------3-3-3-3-3-3-3-3-3-3-3-3-3-3-3-3-3--------------|
 ..................................................................................

E------------------------------------------------------------------||
B------------------------------------------------------------------||
G------------------------------------------------------------------|| end
D-----------------------------------------------------------2~~----||
A-5-5-5-5-5-5-5-5-5-5-4-4-4-4-4-4-4-4-4-4-4-4-4-4-4-4-4-----0~~----||
E------------------------------------------------------------------||
 ......................................................|

  Riff 2
E----------------------------------------------------------------------------------|
B----------------------------------------------------------------------------------|
G----------------------------------------------------------------------------------|
D----------------------------------------------------------------------------------|
A-----------------------------3-3-3-3-3-3-3-3-3-3-3-3-3-3-3-5-5-5-5-5-5-5-5-5-5-5-5|
E-1-1-1-1-1-1-1-1-1-1-1-1-1-1------------------------------------------------------|
 pm................................................................................
			
E----------------------------------------------------------------------------------|
B----------------------------------------------------------------------------------|
G----------------------------------------------------------------------------------|
D----------------------------------------------------------------------------------|
A-5--------------------------------------------------------3-3-3-3-3-3-3-3-3-3-3-3-|
E---5-5-5-5-5-5-5-5-5-5-5-5-5--1-1-1-1-1-1-1-1-1-1-1-1-1-1-------------------------|
 ..................................................................................

E------------------------------------------------------------------------------||
B------------------------------------------------------------------------------||
G------------------------------------------------------------------------------||
D------------------------------------------------------------------------------||
A-3-3-3-------------------------------5-5-5-5-5-5-5-3-3-3-3-3-3-3-3--4~--6~----||
E-------3-3-3-3-3-3-3-3-3-3-3-3-3-3-3------------------------------------------||
 ..................................................................|


TABLATURE EXPLANATION
----------------------

pm..|= palm mute

~ = Vibrato

\= slide down

|     |
|     |
|*   *| = repeat from * to *
|*   *| 
|     |
Comments