Rhapsody - Knightrider Of Doom Chords & Tabs

 

Knightrider Of Doom Chords & Tabs

Rhapsody Chords & Tabs

Version: 1 Type: Bass Tab 0 ratings
1 star 2 stars 3 stars 4 stars 5 stars
comments

Knightrider Of Doom Bass Tab

                        Knightrider Of Doom                               
                                                     
xjljy@hotmail.com Bass Tabs



                                                                           
F||----------|-------------------|--------------------|-------------------|
C||----------|--2----------------|----------5----4----|--2----------------|
G||----------|-------------------|--------------------|-------------------|
D||----------|--0----------------|----------3----2----|--0----------------|


                                                                
--4---------2---------|-------------------|--------------------|
-------5---------4----|--2----------------|----------5----4----|
--2---------0---------|-------------------|--------------------|
-------3---------2----|--0----------------|----------3----2----|


                                                     
-------------------|---------------------|----------|
--2----------------|--5----4----2--------|----------|
-------------------|---------------------|----------|
--0----------------|--3----2----0--------|----------|


                                                                 
----------------------------------|-----------------------------|
--2-2-2-2-2-2-2-2-2-2-2-2-2-2-2-2-|--2-2-2-2-4--5--4-4-5--4--1--|
----------------------------------|-----------------------------|
----------------------------------|-----------------------------|


                                                                 
----------------------------------|-----------------------2--5--|
--2-2-2-2-2-2-2-2-2-2-2-2-2-2-2-2-|--2-2-2-2-4--5--4-4-5--------|
----------------------------------|-----------------------------|
----------------------------------|-----------------------------|


                                                              
--4-4-4-4-4--4-4-4-4-4--4-4-4-4-|--4-4-4--5--4--2-2-4--2--5--|
--------------------------------|----------------------------|
--------------------------------|----------------------------|
--------------------------------|----------------------------|


                                                                  
--4-4-4-4-4--4-4-4-4-4--4-4-4-4-|---------------------|----------|
--------------------------------|--5----4----2--------|----------|
--------------------------------|---------------------|----------|
--------------------------------|--3----2----0--------|----------|


                                                                           
-------------------|--------------------------|---------------------------|
-------------------|--5h-2--5h-2--5h-2--5h-2--|--4h-1--4h-1--4h-1--4-4h1--|
--1----------------|--------------------------|---------------------------|
-------------------|--------------------------|---------------------------|


                                                              
--------------------------|-----------------------|----------|
--4h-1--4h-1--4h-1--4h-1--|--6h-3--6h-3-----------|----------|
--------------------------|-----------------------|----------|
--------------------------|--------------4--------|----------|


                                                                 
------------------|----------------------|----------------------|
------------------|----------------------|----------------------|
------------------|--0----0----0----0----|--0----0----0----0----|
------------------|----------------------|----------------------|


                                                                       
----------------------|----------------------|------------------------|
----------------------|--4----2----1----2----|------------------------|
--4----4----4----4----|----------------------|------------------------|
----------------------|----------------------|----4--4--4----4--6--4--|


                                                                          
------------------------|-------------8--6--4--|--------------------4/---|
------------------------|----------------------|--7--6-----------6-------|
------------------------|--2-------------------|--------7--6--7----------|
----4--7--4----4--6--4--|----------------------|-------------------------|


                                                                         
----------------------|--------------------------|----------------------|
----------------------|--------------------------|----------------------|
--0----0----0----0----|--0--0--0--0--0--0--0--0--|--4----4----4----4----|
----------------------|--------------------------|----------------------|


                                                                         
----------------------|----------------------|--------------------------|
----4----2----1----2--|----------------------|--------------------------|
----------------------|----------------------|--------------------------|
----------------------|--4----4----4----4----|--4--4--4--4--4--4--4--4--|


                                                                     
-------------9--8-----|-------------------------|-------------------|
-------------------9--|--7--6-----9--7--6--7/---|-------------------|
--2-------------------|--------7----------------|-------------------|
----------------------|-------------------------|--3----------------|


                                                                         
-------------------|--------------6--4--------|-------------------------|
-------------------|--------6-----------7--6--|----7--4--6--2--4--1--2--|
--1----------------|--4--7-----7--------------|-------------------------|
-------------------|--------------------------|-------------------------|


                                                                       
--------------------------|----------------------|--------------------|
--------6-----6--4--------|--6----4--------------|--------------------|
--4--7-----7--------7--6--|------------7----6----|--4-----------------|
--------------------------|----------------------|---------------4----|


                                                                 
-------------------|--------------------1--|--------------------|
-------------------|-----------------2-----|--4-----------------|
--4----------------|--------------2--------|-----------2--------|
-------------------|--0--------0-----------|--------------------|


                                                                
---------------6/---|-------------------|-------------------1--|
--------------------|-------------------|----------------2-----|
--4-----------------|-------------------|-------------2--------|
--------------------|--4----------------|--0-------------------|


                                                              
-----------4--------|--------------------|-------------------|
--------------------|--------------------|-------------------|
--2-----------------|--4-----------------|--4----------------|
--------------------|-----------4--------|-------------------|


                                                                         
----------------------|-----4--2--4--0--4--------|----------------0--2--|
----------------------|--------------------4--0--|-------------0--------|
----------------------|--------------------------|----------------------|
--0----0----0----0----|--0-----------------------|--3-------------------|


                                                                        
--0--------2--0----------|------------------------|-----------4/-------|
-----4--0--------4--5/---|--2----2----2--4--5--7--|--------------------|
-------------------------|------------------------|--2-----------------|
-------------------------|------------------------|--------------------|


                                                                   
----------------0--2--|----------------------|--------------------|
-------------0--------|--0----0----0----0----|--2-----------------|
----------------------|----------------------|-----------2--------|
--3-------------------|----------------------|--------------------|


                                                         
---------------------|----------------------------------|
---------------------|--2-2-2-2-2-2-2-2-2-2-2-2-2-2-2-2-|
---------------------|----------------------------------|
--0------------12----|----------------------------------|


                                                                 
-----------------------------|----------------------------------|
--2-2-2-2-4--5--4-4-5--4--1--|--2-2-2-2-2-2-2-2-2-2-2-2-2-2-2-2-|
-----------------------------|----------------------------------|
-----------------------------|----------------------------------|


                                                               
-----------------------2--5--|--4-4-4-4-4--4-4-4-4-4--4-4-4-4-|
--2-2-2-2-4--5--4-4-5--------|--------------------------------|
-----------------------------|--------------------------------|
-----------------------------|--------------------------------|


                                                              
--4-4-4--5--4--2-2-4--2--5--|--4-4-4-4-4--4-4-4-4-4--4-4-4-4-|
----------------------------|--------------------------------|
----------------------------|--------------------------------|
----------------------------|--------------------------------|


                                                                            
---------------------|----------|-------------------|----------------------|
--5----4----2--------|----------|-------------------|----------------------|
---------------------|----------|--1----------------|--0----0----0----0----|
--3----2----0--------|----------|-------------------|----------------------|


                                                                     
----------------------|----------------------|----------------------|
----------------------|----------------------|--4----2----1----2----|
--0----0----0----0----|--4----4----4----4----|----------------------|
----------------------|----------------------|----------------------|


                                                                         
------------------------|------------------------|-------------8--6--4--|
------------------------|------------------------|----------------------|
------------------------|------------------------|--2-------------------|
----4--4--4----4--6--4--|----4--7--4----4--6--4--|----------------------|


                                                                            
--------------------4/---|----------------------|--------------------------|
--7--6-----------6-------|----------------------|--------------------------|
--------7--6--7----------|--0----0----0----0----|--0--0--0--0--0--0--0--0--|
-------------------------|----------------------|--------------------------|


                                                                     
----------------------|----------------------|----------------------|
----------------------|----4----2----1----2--|----------------------|
--4----4----4----4----|----------------------|----------------------|
----------------------|----------------------|--4----4----4----4----|

[ Tab from: http://www.guitartabs.cc/tabs/r/rhapsody/knightrider_of_doom_btab.html ]
                                                                            
--------------------------|-------------9--8-----|-------------------------|
--------------------------|-------------------9--|--7--6-----9--7--6--7/---|
--------------------------|--2-------------------|--------7----------------|
--4--4--4--4--4--4--4--4--|----------------------|-------------------------|


                                                                   
-------------------|-------------------|--------------6--4--------|
-------------------|-------------------|--------6-----------7--6--|
-------------------|--1----------------|--4--7-----7--------------|
--3----------------|-------------------|--------------------------|


                                                                            
-------------------------|--------------------------|----------------------|
----7--4--6--2--4--1--2--|--------6-----6--4--------|--6----4--------------|
-------------------------|--4--7-----7--------7--6--|------------7----6----|
-------------------------|--------------------------|----------------------|


                                                                 
--------------------|-------------------|--------------------1--|
--------------------|-------------------|-----------------2-----|
--4-----------------|--4----------------|--------------2--------|
---------------4----|-------------------|--0--------0-----------|


                                                              
--------------------|---------------6/---|-------------------|
--4-----------------|--------------------|-------------------|
-----------2--------|--4-----------------|-------------------|
--------------------|--------------------|--4----------------|


                                                                 
-------------------1--|-----------4--------|--------------------|
----------------2-----|--------------------|--------------------|
-------------2--------|--2-----------------|--4-----------------|
--0-------------------|--------------------|-----------4--------|


                                                                      
-------------------|----------------------|-----4--2--4--0--4--------|
-------------------|----------------------|--------------------4--0--|
--4----------------|----------------------|--------------------------|
-------------------|--0----0----0----0----|--0-----------------------|


                                                                          
----------------0--2--|--0--------2--0----------|------------------------|
-------------0--------|-----4--0--------4--5/---|--2----2----2--4--5--7--|
----------------------|-------------------------|------------------------|
--3-------------------|-------------------------|------------------------|


                                                                   
-----------4/-------|----------------0--2--|----------------------|
--------------------|-------------0--------|--0----0----0----0----|
--2-----------------|----------------------|----------------------|
--------------------|--3-------------------|----------------------|


                                                                      
--------------------|---------------------|--------------------------|
--2-----------------|---------------------|--------------------------|
-----------2--------|---------------------|--------------------------|
--------------------|--0------------12----|--0--0--0--0--3--3--3--3--|


                                                      
--------------------------|--------------------------|
-----------------2-----0--|--------------------------|
--0--0--0--0--------------|--------------------------|
--------------0-----0-----|--0--0--0--0--3--3--3--3--|


                                                      
--------------------------|--------------------------|
--------------------------|--------------------------|
--0--0--0--0--2--0--------|--------------------------|
--------------------3--2--|--0--0--0--0--3--3--3--3--|


                                                      
--------------------------|--------------------------|
-----------------2-----0--|--------------------------|
--0--0--0--0--------------|--------------------------|
--------------0-----0-----|--0--0--0--0--3--3--3--3--|


                                                                 
--------------------------|--------------|----------------------|
--------------------------|--------------|----------------------|
--1--1--1--1--2--2--2--2--|--2--0--------|----------------------|
--------------------------|--------3--2--|--0------1--3----3----|


                                                                           
-------2----------------|----------------------|--------------------------|
------------------2-----|----------------------|--------------------------|
--0------------2-----2--|----------------------|--0--0--0--0--2--0--------|
------------0-----------|--0------1--3----3----|--------------------3--2--|


                                                                       
----------------------|-------2----------------|----------------------|
----------------------|------------------2-----|----------------------|
----------------------|--0------------2-----2--|----------------------|
--0------1--3----3----|------------0-----------|--0------1--3----3----|


                                                            
-----------------------|----------|------------------------|
-----------------------|----------|------------------------|
--1--2--1-----2--------|----------|--3---3---3--5---3------|
-----------3-----------|----------|---------------------3--|


                                                                      
------------------------|-------------------|------------------------|
------------------------|-------------------|------2---0--2---1---0--|
--0---0---0--0---0---0--|-------------------|------------------------|
------------------------|--3----------------|--3---------------------|


                                                                     
----------------------|----------------------|----------------------|
----------------------|----------------------|----------------------|
--3----3----3----3----|--1----1----1----1----|--2----2----2----2----|
----------------------|----------------------|----------------------|


                                                     
----------------------|-----------------------------|
----------------------|-----------------------------|
--14--------14--------|--3--------0-----------------|
----------------------|----------------3------------|


                                                            
-----------------------------|-----------------------------|
-----------------------------|-----------------------------|
--0--------0-----------------|--3--------0-----------------|
----------------0------------|----------------3------------|


                                                       
-----------------------------|---------------0--------|
-----------------------------|---------2--------2-----|
--0--------0-----------------|--3---------3--------3--|
----------------0------------|------------------------|


                                                                           
-------------------------|----------------------|-------2--4--0--4-----4--|
--------2----------2--5--|----------------------|-------------------4-----|
--1--4-----1----4--------|--2----0--------------|--2----------------------|
-------------------------|------------3----2----|-------------------------|


                                                                         
----------------------|-----4--2--4--0--4--------|----------------0--2--|
----------------------|--------------------4--0--|-------------0--------|
----------------------|--------------------------|----------------------|
--0----0----0----0----|--0-----------------------|--3-------------------|


                                                                        
--0--------2--0----------|------------------------|-----------4/-------|
-----4--0--------4--5/---|--2----2----2--4--5--7--|--------------------|
-------------------------|------------------------|--2-----------------|
-------------------------|------------------------|--------------------|


                                                                   
----------------0--2--|----------------------|--------------------|
-------------0--------|--0----0----0----0----|--2-----------------|
----------------------|----------------------|-----------2--------|
--3-------------------|----------------------|--------------------|


                                                                      
-------------------|----------------------|-----4--2--4--0--4--------|
-------------------|----------------------|--------------------4--0--|
-------------------|----------------------|--------------------------|
--0----------------|--0----0----0----0----|--0-----------------------|


                                                                          
----------------0--2--|--0--------2--0----------|------------------------|
-------------0--------|-----4--0--------4--5/---|--2----2----2--4--5--7--|
----------------------|-------------------------|------------------------|
--3-------------------|-------------------------|------------------------|


                                                                   
-----------4/-------|----------------0--2--|----------------------|
--------------------|-------------0--------|--0----0----0----0----|
--2-----------------|----------------------|----------------------|
--------------------|--3-------------------|----------------------|


                                                                              
--------------------|---------------------|----------------------------------|
--2-----------------|---------------------|--2-2-2-2-2-2-2-2-2-2-2-2-2-2-2-2-|
-----------2--------|---------------------|----------------------------------|
--------------------|--0------------12----|----------------------------------|


                                                                 
-----------------------------|----------------------------------|
--2-2-2-2-4--5--4-4-5--4--1--|--2-2-2-2-2-2-2-2-2-2-2-2-2-2-2-2-|
-----------------------------|----------------------------------|
-----------------------------|----------------------------------|


                                                               
-----------------------2--5--|--4-4-4-4-4--4-4-4-4-4--4-4-4-4-|
--2-2-2-2-4--5--4-4-5--------|--------------------------------|
-----------------------------|--------------------------------|
-----------------------------|--------------------------------|


                                                              
--4-4-4--5--4--2-2-4--2--5--|--4-4-4-4-4--4-4-4-4-4--4-4-4-4-|
----------------------------|--------------------------------|
----------------------------|--------------------------------|
----------------------------|--------------------------------|


                                                                         
---------------------|----------|-------------------|------------------||
--5----4----2--------|----------|--2----------------|------------------||
---------------------|----------|-------------------|------------------||
--3----2----0--------|----------|--0----------------|------------------||


xjljy@hotmail.com
Comments