Rhapsody - Emerald Sword Chords & Tabs

 

Emerald Sword Chords & Tabs

Rhapsody Chords & Tabs

Version: 3 Type: Bass Tab 0 ratings
1 star 2 stars 3 stars 4 stars 5 stars
comments

Emerald Sword Bass Tab

intro
|----------------------------------------------------|
|-------444444222222-1-----------444444222222---1---*|
|-444444---------------4-2-444444-------------2---4-*|
|----------------------------------------------------|
                                          Across...                         
                                          Riff 
|--------------------------------------|-|------------------------------------|
|-------------------------------------*|-|------------------------------------|
|-----------------6-------------------*|-|-444444444444-----------------------|
|-4-444-4-2-222-2---4-444-4-2-222-2-4--|-|-------------444444444444-----------|
                                                                              

|---------------------------------------------------------------------------|
|---------------------9-7-------------------------------------------6-4----*|
|-777777777777-----------10-9------------444444444444-------------------7--*|
|-------------7777-7----------22222222222------------333333333333-----------|
 On  he way...                                                              
                                              
|-------------------|-|--------------------------|
|------------------*|-|-------------------------*|
|-0--2--4--5--2--4-*|-|-4---6---7-2-4---6---7-2-*|
|-------------------|-|--------------------------|
  For the... 

|--------------------------------|
|--------------------------------|
|--444444444444------------------|
|--------------444444444444------|
[ Tab from: http://www.guitartabs.cc/tabs/r/rhapsody/emerald_sword_btab_ver_3.html ]
|---------------------------------------------------------------------------|
|---------------------9-7-------------------------------------------6-4----*|
|-777777777777------------10-9-----------444444444444-------------------7--*|
|-------------7777-7----------22222222222------------333333333333-----------|
   
|-------------------|
|------------------*| 
|-0--2--4--5--2--4-*|
|-------------------| 
                                                            
 coro
|----------------------------------------------------|
|----------------------------------------------------|
|-0*--------4*--5*--7*--0*---0*--7*--9*--4*--5*--7*--|
|----0*--2*------------------------------------------|
                                                                          
                               
|------------------------------|-----------------------------|
|------------------------------|----------------------------*|
|-----------4--------------4---|-------------------44444444-*|
|-2----5---------2----5--------|-22222222-55555555-----------|
                                                                     
acompaņamiento solo guitarra 
|------------|
|-----------*|
|-4*---4*---*|
|---2*---4*--|
                                
|----------------------------|
|----4-----------4-----------|
|-4-----4-----4-----3--4---3-|
|----------4-----------------|

|--------------------------------|
|--------------------------------|
|--444444444444------------------|
|--------------444444444444------|

|---------------------------------------------------------------------------|
|---------------------9-7-------------------------------------------6-4----*|
|-777777777777------------10-9-----------444444444444-------------------7--*|
|-------------7777-7----------22222222222------------333333333333-----------|
   
|-------------------|
|------------------*| 
|-0--2--4--5--2--4-*|
|-------------------| 
                                                            
 coro                                                
|-----------------------------------------------------|
|----------------------------------------------------*|
|-0*--------4*--5*--7*--0*---0*--7*--9*--4*--5*--7*--*|
|----0*--2*-------------------------------------------|

no tengo na ke decir puta ke fue dificil no + jajajajjajajaj marcovalenzuel14@hotmail.com
Comments