Rhapsody - Emerald Sword Chords & Tabs

 

Emerald Sword Chords & Tabs

Rhapsody Chords & Tabs

Version: 1 Type: Bass Tab 1 rating
1 star 2 stars 3 stars 4 stars 5 stars
comments

Emerald Sword Bass Tab

Song: Emerald Sword
Band: Rhapsody
Album: Symphony of Enchanted Lands
Transcribed by Luis Fernando

E-mail: hard_rocker@bol.com.br

Intro                                   Faster!!!
G ---|------|---|---|---|------|---|---|-----------------|------------
D ---|------|---|---|---|------|---|---|---------2-2-2-2-|-0-0-0-0----
A -2-|------|-2-|-2-|-2-|------|-2-|-2-|-2-2-2-2---------|---------4-4
E ---|------|---|---|---|------|---|---|-----------------|------------

G -----|-----------------|-----------------|-----------------|--------
D -----|---------2-2-2-2-|-0-0-0-0---------|---------2-2-2-2-|-0-0-0-0
A -4-4-|-2-2-2-2---------|---------4-4-4-4-|-2-2-2-2---------|--------
E -----|-----------------|-----------------|-----------------|--------

G ---------|-----------------|---------------|-------------|----------
D ---------|---------2-2-2-2-|-0-0-0-0-------|-------------|----------
A -4-4-4-4-|-2-2-2-2---------|---------4-4-4-|-------------|----------
E ---------|-----------------|---------------|-3-3-3-3-3-3-|-3-3-3-3-3

G ---|-------------|-------------|-------------|-------------|--------
D ---|-------------|-------------|-------------|-------------|--------
A ---|-------------|-------------|-------------|-------------|--------
E -3-|-3-3-3-3-3-3-|-3-3-3-3-3-3-|-3-3-3-3-3-3-|-3-3-3-3-1-1-|-3-3-3-3
                      Lyrics enter here!
G -----|-------------|-----------------|-----------------|------------
D -----|-------------|-----------------|-----------------|-1-1-1-1-1-1
A -----|-------------|-3-3-3-3-3-3-3-3-|-----------------|------------
E -3-3-|-3-3-3-3-3-3-|-----------------|-3-3-3-3-3-3-3-3-|------------

G -----|-----------------|-----------------|-----------------|--------
D -1-1-|-0-0-0-0-0-0-0-0-|-----------------|-----------------|-4-4-4-4
A -----|-----------------|-3-3-3-3-3-3-3-3-|-----------------|--------
E -----|-----------------|-----------------|-3-3-3-3-3-3-3-3-|--------

G ---------|-0-0-0-0-0-0-0-0-|-----------------|-----------------|----
D -4-4-4-4-|-----------------|-----------------|-----------------|-1-1
A ---------|-----------------|-3-3-3-3-3-3-3-3-|-----------------|----
E ---------|-----------------|-----------------|-3-3-3-3-3-3-3-3-|----

G -------------|-----------------|-----------------|-----------------|
D -1-1-1-1-1-1-|-0-0-0-0-0-0-0-0-|-----------------|-----------------|
A -------------|-----------------|-3-3-3-3-3-3-3-3-|-----------------|
E -------------|-----------------|-----------------|-3-3-3-3-3-3-3-3-|
                                      "On the to the glory..."
G -----------------|-0-0-0-0-0-0-0-0-|-1---|---|-1---|---|-1---|---|-1
D -4-4-4-4-4-4-4-4-|-----------------|---1-|---|---1-|---|---1-|---|--
A -----------------|-----------------|-----|-3-|-----|-3-|-----|-3-|--
E -----------------|-----------------|-----|---|-----|---|-----|---|--
                                             Faster!!!
G ---|---|------|---|---|---|---|---|---|---|-----------------|-------
D -1-|---|------|---|-1-|---|---|---|-1-|---|-----------------|-------
A ---|-3-|------|-3-|---|-3-|-3-|-3-|---|-3-|-3-3-3-3-3-3-3-3-|-------
E ---|---|------|---|---|---|---|---|---|---|-----------------|-3-3-3-

G ----------|-----------------|-----------------|-----------------|---
D ----------|-1-1-1-1-1-1-1-1-|-0-0-0-0-0-0-0-0-|-----------------|---
A ----------|-----------------|-----------------|-3-3-3-3-3-3-3-3-|---
E 3-3-3-3-3-|-----------------|-----------------|-----------------|-3-

G --------------|-----------------|-0-0-0-0-0-0-0-0-|-----------------
D --------------|-4-4-4-4-4-4-4-4-|-----------------|-----------------
A --------------|-----------------|-----------------|-3-3-3-3-3-3-3-3-
E 3-3-3-3-3-3-3-|-----------------|-----------------|-----------------

G |-----------------|-----------------|-----------------|-------------
D |-----------------|-1-1-1-1-1-1-1-1-|-0-0-0-0-0-0-0-0-|-------------
A |-----------------|-----------------|-----------------|-3-3-3-3-3-3-
E |-3-3-3-3-3-3-3-3-|-----------------|-----------------|-------------
                                                            "In a long
G ----|-----------------|-----------------|-0-0-0-0-0-0-0-0-|-1---|---
D ----|-----------------|-4-4-4-4-4-4-4-4-|-----------------|---1-|---
A 3-3-|-----------------|-----------------|-----------------|-----|-3-
E ----|-3-3-3-3-3-3-3-3-|-----------------|-----------------|-----|---
bloody battle..."                       Chorus "For the king, for the
G |-1---|---|-1---|---|-1---|---|------|-----------------|------------
D |---1-|---|---1-|---|---1-|---|------|-----------------|-1-1-1-1-1-1
A |-----|-3-|-----|-3-|-----|-3-|------|-----------------|------------
E |-----|---|-----|---|-----|---|------|-4-4-4-4-4-4-4-4-|------------
land for the montains"
G -----|-----------------|-----------------|-----------------|--------
D -1-1-|-----------------|-----------------|-----------------|-1-1-1-1
A -----|-----------------|-3-3-3-3-3-3-3-3-|-4-4-4-4-4-4-4-4-|--------
E -----|-1-1-1-1-1-1-1-1-|-----------------|-----------------|--------
[ Tab from: http://www.guitartabs.cc/tabs/r/rhapsody/emerald_sword_btab.html ]
G ---------|-----------------|-----------------|-----------------|----
D -1-1-1-1-|-----------------|-----------------|-----------------|-1-1
A ---------|-----------------|-----------------|-----------------|----
E ---------|-4-4-4-4-4-4-4-4-|-4-4-4-4-4-4-4-4-|-4-4-4-4-4-4-4-4-|----

G -------------|-----------------|-----------------|-----------------|
D -1-1-1-1-1-1-|-----------------|-----------------|-----------------|
A -------------|-----------------|-3-3-3-3-3-3-3-3-|-4-4-4-4-4-4-4-4-|
E -------------|-1-1-1-1-1-1-1-1-|-----------------|-----------------|
                                     End of the chorus. Slow...  
G -----------------|-----------------|-----------------|---|---|---|--
D -1-1-1-1-1-1-1-1-|-----------------|-----------------|---|---|---|--
A -----------------|-----------------|-----------------|---|---|-3-|--
E -----------------|-4-4-4-4-4-4-4-4-|-4-4-4-4-4-4-4-4-|-1-|-4-|---|--
                          Faster
G ----|---|---|---|------|-----------------|-----------------|--------
D ----|---|---|---|------|-----------------|-----------------|--------
A ----|---|---|-3-|------|-----------------|-----------------|-3-3-3-3
E ----|-1-|-4-|---|------|-1-1-1-1-1-1-1-1-|-4-4-4-4-4-4-4-4-|--------

G ---------|-----------------|-----------------|-----------------|----
D ---------|-----------------|-----------------|-----------------|----
A -3-3-3-3-|-3-3-3-3-3-3-3-3-|-----------------|-----------------|-3-3
E ---------|-----------------|-1-1-1-1-1-1-1-1-|-4-4-4-4-4-4-4-4-|----
                                  Solo
G -------------|-----------------|---|-----|---|---|---|-----|---|----
D -------------|-----------------|---|-3-3-|---|---|---|-3-3-|---|----
A -3-3-3-3-3-3-|-3-3-3-3-3-3-3-3-|-3-|-----|-3-|---|-3-|-----|-3-|----
E -------------|-----------------|---|-----|---|-3-|---|-----|---|----

G --|-----------------|-----------------|-----------------|-----------
D --|-----------------|-3-3-3-3-3-3-3-3-|-----------------|-----------
A --|-3-3-3-3-3-3-3-3-|-----------------|-3-3-3-3-3-3-3-3-|-----------
E --|-----------------|-----------------|-----------------|-3-3-3-3-3-

G ------|-----------------|-----------------|-----------------|-------
D ------|-----------------|-3-3-3-3-3-3-3-3-|-----------------|-------
A ------|-3-3-3-3-3-3-3-3-|-----------------|-3-3-3-3-3-3-3-3-|-------
E 3-3-3-|-----------------|-----------------|-----------------|-3-3-3-
             Violin (???) little solo           "Only a warrior..."
G ----------|-----|-----|-----|-----|---|------|-----------------|----
D ----------|---3-|-----|---3-|-----|---|------|-----------------|----
A ----------|-3---|-3---|-3---|-3---|-2-|------|-3-3-3-3-3-3-3-3-|----
E 3-3-3-3-3-|-----|---3-|-----|---3-|---|------|-----------------|-3-3

G -------------|-----------------|-----------------|-----------------|
D -------------|-1-1-1-1-1-1-1-1-|-0-0-0-0-0-0-0-0-|-----------------|
A -------------|-----------------|-----------------|-3-3-3-3-3-3-3-3-|
E -3-3-3-3-3-3-|-----------------|-----------------|-----------------|

G -----------------|-----------------|-0-0-0-0-0-0-0-0-|--------------
D -----------------|-4-4-4-4-4-4-4-4-|-----------------|--------------
A -----------------|-----------------|-----------------|-3-3-3-3-3-3-3
E -3-3-3-3-3-3-3-3-|-----------------|-----------------|--------------

G ---|-----------------|-----------------|-----------------|----------
D ---|-----------------|-1-1-1-1-1-1-1-1-|-0-0-0-0-0-0-0-0-|----------
A -3-|-----------------|-----------------|-----------------|-3-3-3-3-3
E ---|-3-3-3-3-3-3-3-3-|-----------------|-----------------|----------
                                                               "On the
G -------|-----------------|-----------------|-0-0-0-0-0-0-0-0-|-1---|
D -------|-----------------|-4-4-4-4-4-4-4-4-|-----------------|---1-|
A -3-3-3-|-----------------|-----------------|-----------------|-----|
E -------|-3-3-3-3-3-3-3-3-|-----------------|-----------------|-----|
way to the glory..."                        Chorus "For the king..."
G ---|-1---|---|-1---|---|-1---|---|------|-----------------|---------
D ---|---1-|---|---1-|---|---1-|---|------|-----------------|-1-1-1-1-
A -3-|-----|-3-|-----|-3-|-----|-3-|------|-----------------|---------
E ---|-----|---|-----|---|-----|---|------|-4-4-4-4-4-4-4-4-|---------

G --------|-----------------|-----------------|-----------------|-----
D 1-1-1-1-|-----------------|-----------------|-----------------|-1-1-
A --------|-----------------|-3-3-3-3-3-3-3-3-|-4-4-4-4-4-4-4-4-|-----
E --------|-1-1-1-1-1-1-1-1-|-----------------|-----------------|-----

G ------------|-----------------|-----------------|-----------------|-
D 1-1-1-1-1-1-|-----------------|-----------------|-----------------|-
A ------------|-----------------|-----------------|-----------------|-
E ------------|-4-4-4-4-4-4-4-4-|-4-4-4-4-4-4-4-4-|-4-4-4-4-4-4-4-4-|-

G ----------------|-----------------|-----------------|---------------
D 1-1-1-1-1-1-1-1-|-----------------|-----------------|---------------
A ----------------|-----------------|-3-3-3-3-3-3-3-3-|-4-4-4-4-4-4-4-
E ----------------|-1-1-1-1-1-1-1-1-|-----------------|---------------

G --|-----------------|-----------------|-----------|
D --|-1-1-1-1-1-1-1-1-|-----------------|-----------|
A 4-|-----------------|-----------------|-----------|
E --|-----------------|-4-4-4-4-4-4-4-4-|-4-4-4-4-4-|
Repeat chorus 'til the end

Comments