Rhapsody - Dawn Of Victory Chords & Tabs

 

Dawn Of Victory Chords & Tabs

Rhapsody Chords & Tabs

Version: 2 Type: Bass Tab 0 ratings
1 star 2 stars 3 stars 4 stars 5 stars
comments

Dawn Of Victory Bass Tab

Intro

|------------------------------------------------------------||
|-----------------------------------------------------------*||
|--3--------------6-----------------------------------------*||
|---------------------------------3-------------6----------~-||
                                 
                 segunda parte del intro
|------------------------------------------------------------|
|------------------------------------------------------------|
|--3*-------------6*-----------------------------------------|
|---------------------------------3*-------------6*--------~-|
                                       

|---------------------------------------------------------||
|--------------------------------------------------------*||
|-3*-------------6*--------------------------------------*||
|--------------------------------3*------------2*-------~-||
                    tercera parte del intro                     
|---------------------------------------------------------|
|--------------------------------------------------------*|
|--3-------------6---------------------------------------*|
|--------------------------------3--------------6---------|

Verso1
|------------------------------------------------------------------------------|
|------------------------------------------------------------------------------|
|-3-3-3-3-3-3-3-3-3-3-3-3-3-3-3-3-3-3-3-3-3-3-3-3-3-3-3-3-3-3-3-3-6*-----------|
|-------------------------------------------------------------------6*-3*--4*--|
   

|---------------------------------------------------------------------------------|
|--------------------------------------------------------------------------------*|
|3-3-3-3-3-3-3-3-3-3-3-3-3-3-3-3-3-3-3-3-3-3-3-3-3-3-3-3-3-3-3-3-6*--------------*|
|------------------------------------------------------------------6*--3*--4*--4*-|
el bajo se ceda callado un ratito jaja


Coro
|-------------------------------|------------------|---|---------------------|---|
|-------------------------------|------------------|-%-|---------------------|-%-|
|3*-(3)*--------3*-(3)*--1*-(1)*|------------------|---|---------------------|---|
|-------3*--(3)*----------------|1--1-1-1-1--1-1-1-|---|1--1-1-1-1-1-1-1-1-1-|---|
                             


|--------------------------------------------|
|--------------------------------------------|
|-3*---(3)*---3*---3*------------------------|
|----------------------4*---(4)*---6*---(6)*-|



|-----------------------------------------------------------|
|----------------------------------------------------------*|
|--3--------------6----------------------------------------*|
|---------------------------------3-------------6-----------|
                                 
                 
|------------------------------------------------------------|
|------------------------------------------------------------|
|--3*-------------6*-----------------------------------------|
|---------------------------------3*-------------6*--------~-|
                                       

|---------------------------------------------------------|
|---------------------------------------------------------|
|-3*-------------6*---------------------------------------|
|--------------------------------3*------------2*-------~-|


Verso1
|------------------------------------------------------------------------------|
|------------------------------------------------------------------------------|
|-3-3-3-3-3-3-3-3-3-3-3-3-3-3-3-3-3-3-3-3-3-3-3-3-3-3-3-3-3-3-3-3-6*-----------|
|-------------------------------------------------------------------6*-3*--4*--|
   

|---------------------------------------------------------------------------------|
|---------------------------------------------------------------------------------|
|3-3-3-3-3-3-3-3-3-3-3-3-3-3-3-3-3-3-3-3-3-3-3-3-3-3-3-3-3-3-3-3-6*---------------|
|------------------------------------------------------------------6*--3*--4*--4*-|
el bajo se ceda callado un ratito jaja
[ Tab from: http://www.guitartabs.cc/tabs/r/rhapsody/dawn_of_victory_btab_ver_2.html ]
Coro
|-------------------------------|------------------|---|---------------------|---|
|-------------------------------|------------------|-%-|---------------------|-%-|
|3*-(3)*--------3*-(3)*--1*-(1)*|------------------|---|---------------------|---|
|-------3*--(3)*----------------|1--1-1-1-1--1-1-1-|---|1--1-1-1-1-1-1-1-1-1-|---|
                             


|--------------------------------------------|
|--------------------------------------------|
|-3*---(3)*---3*---3*------------------------|
|----------------------4*---(4)*---6*---(6)*-|

solo guitarra
|--------------------------------------|-------------------------------------|
|--------------------------------------|-3-----------------------------------|
|-3-----------------3------------------|----------------3--------------------|
|--------------------------------------|-------------------------------------|

|-------------------------------------|-------------------------|
|-3-----------------------------------|------------------------*|
|-------------------3-----------------|-------------------3----*|
|-------------------------------------|-3-----------------------|

solo 2 guitarra
|--------------------------------------------------|
|--------------------------------------------------|
|--3--3--3--3--3--3--3--3--3--3--3--3--6--6--6--6--|
|--------------------------------------------------|

|-------------------------------------------------|
|-------------------------------------------------|
|--5--5--5--5--5--5--5--5--3--3--3--3--3--3--3--3-|
|-------------------------------------------------|

|-------------------------------------------------|
|-------------------------------------------------|
|--3--3--3--3--3--3--3--3--3--3--3--3--6--6--6--6-|
|-------------------------------------------------|

|-------------------------------------------------|
|------------------------------------------------*|
|--8--8--8--8--8--8--8--8--3--3--3--3--3--3--3--3*|
|-------------------------------------------------|

solo 3 guitarra
|------------------------------------------------------------------------------|
|--------------------3*------------------------3*--------3*------------3*-----*|
|----------6*---------------------3*----------------------------3*------------*|
|--4*--------------------------------------------------------------------------|

|--------------------------------------|-------------------------------------|
|--------------------------------------|-3-----------------------------------|
|-3-----------------3------------------|----------------3--------------------|
|--------------------------------------|-------------------------------------|

|-------------------------------------|-------------------------|
|-3-----------------------------------|------------------------*|
|-------------------3-----------------|-------------------3----*|
|-------------------------------------|-3-----------------------|

Verse2                       X4
|-----------------------------|
|----------------------------*|
|--3*-----------------6*-----*|
|--------3*-----4*--------6*--|
el bajo se ceda callado un ratito jaja

Coro
|-------------------------------|------------------|---|---------------------|---|
|-------------------------------|------------------|-%-|---------------------|-%-|
|3*-(3)*--------3*-(3)*--1*-(1)*|------------------|---|---------------------|---|
|-------3*--(3)*----------------|1--1-1-1-1--1-1-1-|---|1--1-1-1-1-1-1-1-1-1-|---|
                             


|--------------------------------------------|
|--------------------------------------------|
|-3*---(3)*---3*---3*------------------------|
|----------------------4*---(4)*---6*---(6)*-|

|-------------------|---|----------------------|---|-----------------------------------|fin
|-------------------|-%-|----------------------|-%-|-----------------------------------|
|-------------------|---|----------------------|---|-3*---(3)*---3*---3*---------------|
|-1--1-1-1-1--1-1-1-|---|-1--1-1-1-1-1-1-1-1-1-|---|----------------------4-------6----|

cauros volvi pero ahora con rhapsody jajja no es tan dicifil cauros sakenlas por mas 
consultas al mail marcovalenzuela14@hotmail.com
acomodence a los tiempos ajjaj eso es lo dificil jajajajja
Comments