Reynolds Tim - Rheginos And The Resurrection Chords & Tabs

 

Rheginos And The Resurrection Chords & Tabs

Reynolds Tim Chords & Tabs

Version: 1 Type: Tab 0 ratings
1 star 2 stars 3 stars 4 stars 5 stars
comments

Rheginos And The Resurrection Tab

Rheginos and the Resurrection
By Tim Reynolds
Tabbed By FiS

Tuning: Drop D


e------------------------------------------------------------
B------------3--3p2p0--------------------3--3p2p0-5--2p3p2p0-
G--2p0-2--4-----------2-------2-2p0---4----------------------
D-------------------------------------------------2----------
A---------------0---------------------------0----------------
D--0------4-----------0---0-4---0-----4----------------------


e-----------------------------------------------------------------------
B------------3--3p2p0---------------------------------------------------
G--2p0-2--4-----------2-------2--------0h2h4p2h4p2p0--------------------
D--------------------------------0h2h4---------------4p2p0-------0h2p0--
A---------------0------------------------------------------0h2h4--------
D--0------4-----------0---0-4-------------------------------------------


e------------------------------------------------------------
B------------3--3p2p0--------------------3--3p2p0-5--2p3p2p0-
G--2p0-2--4-----------2-------2-2p0---4----------------------
D------------------------------------------------------------
A---------------0---------------------------0-----0----------
D--0------4-----------0---0-4---0-----4----------------------


e--------------------------------------------------------------------
B------------3--3p2p0------------------------------------------------
G--2p0-2--4-----------2-------2--------------------------------------
D----------------------------------------0h2p02h4p2p0---0------0h2p0-
A---------------0------------------0h2h4--------------4---0h2h4------
D--0------4-----------0---0-4----------------------------------------


e---2p0---0--------------------------------------------
B---3---3---3----5--3---3---------3-----7-----5/65--3-
G----------------4--4---4-------4-------6-----4/54--4-
D-----------------------------0---------7-----5/65----
A------------------------------------0-----0-----------
D---4---------4--5----0---5-6--------------------------

e---2p0---0------------------------10------7h8p7--5-----8/9-
B---3---3---3----5--3---3-----------7------7------5---------
G----------------4--4---4--------7---------6------5-----8/9-
D------------------------------9----------------------------
A----------------------------7----------0------------0------
D---4---------4--5----0---5---------------------------------


e---2p0---0--------------------------------------------
B---3---3---3----5--3---3---------3-----7-----5/65--3-
G----------------4--4---4-------4-------6-----4/54--4-
D-----------------------------0---------7-----5/65----
A------------------------------------0-----0-----------
D---4---------4--5----0---5-6--------------------------


e---2-2---2---2-2----2-2----2--2---2----2p0---------
B---3-3---3---3-3----3-3----3--3---3--------3-------
G---------------------------4--4---4----------4---4- 
D-----------2---------------5--5---5--5---------5---
A-------2---------2------0-------0------------------
D-0-2-----------------------------------------------


e------------------------------------------------------------
B------------3--3p2p0--------------------3--3p2p0-5--2p3p2p0-
G--2p0-2--4-----------2-------2-2p0---4----------------------
D-------------------------------------------------2----------
A---------------0---------------------------0----------------
D--0------4-----------0---0-4---0-----4----------------------

[ Tab from: http://www.guitartabs.cc/tabs/r/reynolds_tim/rheginos_and_the_resurrection_tab.html ]
e------------------------------------------------------------------
B------------3--3p2p0----------------------------------------------
G--2p0-2--4-----------2-------2------------------------------------
D--------------------------------0h2h4/5-----------------------2p0-
A---------------0------------------------0h2h4/5---------0h2h4-----
D--0------4-----------0---0-4--------------------0h2h4/5-----------


e------------------------------------------------------------
B------------3--3p2p0--------------------3--3p2p0-5--2p3p2p0-
G--2p0-2--4-----------2-------2-2p0---4----------------------
D-------------------------------------------------2----------
A---------------0---------------------------0----------------
D--0------4-----------0---0-4---0-----4----------------------


e---------------------------------5p2------7p3------9p5------10-----
B------------3--3p2p0-----------------3--------5--------7-----------
G--2p0-2--4-----------2-------2---------2--------4--------7---------
D-------------------------------------------------------------------
A---------------0---------------------------------------------------
D--0------4-----------0---0-4---------------------------------------


e---2p0---0--------------------------------------------
B---3---3---3----5--3---3---------3-----7-----5/65--3-
G----------------4--4---4-------4-------6-----4/54--4-
D-----------------------------0---------7-----5/65----
A------------------------------------0-----0-----------
D---4---------4--5----0---5-6--------------------------

e---2p0---0------------------------10------7h8p7--5-----8/9-
B---3---3---3----5--3---3-----------7------7------5---------
G----------------4--4---4--------7---------6------5-----8/9-
D------------------------------9----------------------------
A----------------------------7----------0------------0------
D---4---------4--5----0---5---------------------------------


e---2p0---0--------------------------------------------
B---3---3---3----5--3---3---------3-----7-----5/65--3-
G----------------4--4---4-------4-------6-----4/54--4-
D-----------------------------0---------7-----5/65----
A------------------------------------0-----0-----------
D---4---------4--5----0---5-6--------------------------


e-----2------0--------0---------
B-----3---3--3-----3--3---3---3-
G-------------------------2---2-
D-------0--------0----------4---
A--------------1--------2-------
D--0--4-------------------------


e---2-2---2---2-2----2-2----2--2---2----2-3-3/5-
B---3-3---3---3-3----3-3----3--3---3------------
G---------------------------4--4---4-4----------
D-----------2---------------5--5-5-5------------
A-------2---------2------0----------------------
D-0-2-------------------------------------------

e---------------0------------1-3-3/5-
B---5-----5---6---3------3-----------
G---5---5---------3----3-------------
D-----3--------------1---------------
A------------------------------------
D---5-------5-----3--------3---------

e---------------0---------------
B---5-----5---6---3------3----3-
G---5---5---------3----3--------
D-----3--------------1----------
A-------------------------------
D---5-------5-----3--------3----


e----------------------------------------------------------
B---3-----5-3-3--------5-3-3--------5-3--5--7-5---5--5-----
G---4-----4-4-2--------2-2-4--------4-4--6--7-6---6--6-----
D----------------------------------------------------------
A----------------------------------------------------------
D---5-5-5-------4-4-4--------5-5-5--------------7------7--


e--------------------------------0-----0-----0-----0-----0-----0-----0----0---
B---3-----5-3-3--------5-3-3-----3-----3-----3-----3-----3-----3-----3----3---
G---4-----4-4-2--------2-2-4-----4-----4-----4-----4-----4-----4-----4----4---
D-----------------------------------------------------------------------------
A-----------------------------------------------------------------------------
D---5-5-5-------4-4-4--------5-5---5-5---5-5---5-5---6-6---6-6---6-6----6---6-


e----------2------------5---
B--------3---3--------3---3-
G------4------------4------- x 2
D----5------------5---------
A--0------------0-----------
D---------------------------
Comments