Reynolds Tim - Open Up And Let It In Chords & Tabs

 

Open Up And Let It In Chords & Tabs

Reynolds Tim Chords & Tabs

Version: 1 Type: Tab 0 ratings
1 star 2 stars 3 stars 4 stars 5 stars
comments

Open Up And Let It In Tab

   
Open Up and Let It In
By Tim Reynolds
Tabbed By Mark Schmitz

Tuning: Standard


Section A
e--------------------------------------------------------------------
B---5p3-6p5----------------------------------------------------------
G------------4p2-4--------------2p0---------4-4/5-4-2-----2-2-----2--
D---------------------------4-------4-------------------2-------2----
A-------------------------2---2-----------------------0-------0------
E-----------------------0--------------0-----------------------------


e---------------------------------------------------------------------
B----3-----3----------------------------------------------------------
G----2---2---2-----2h4---------2p0--------------------------2p0-------
D------0-------0-----------4-------4---------5---5------4--------4----  
A------------------------2---2------------------------2---2-----------
E----3-----------------0-------------0---0-3---5----0--------------0--
 
[ Tab from: http://www.guitartabs.cc/tabs/r/reynolds_tim/open_up_and_let_it_in_tab.html ]
Section B
e--3-3/5-5-5p3p0---------------------------------------------------------------------
B--------------------------5----------------3--------------5----------------3--------
G------------------------4---4------------2---2----------4---4------------2---2------
D----------------------2-------2--------2-------2------2-------2--------2-------2----
A------------------------------------------------------------------------------------ 
E--------------------5-----------5----3-----------3--5-----------5----3-----------3--  


e----------------------------------------------------------------
B---3-3/5-5-5p3p0------------------------------------------------
G------------------------2p0--------------------------2p0--------
D---------------------4-------4---------5---5------4--------4----  
A-------------------2---2------------------------2---2-----------
E-----------------0-------------0---0-3---5----0--------------0--


Section C
e--0-----0------------------------
B----0-----0----0-----------------
G------7-----0----0----0----------
D--------------7----0----0-----0--
A---------------------7----0------
E----------------------------7----


Section D 
e---2-------2-------2-------3-----3------3--2-2h3p2p0------
B---3-----3---3---3---3-----3---3---3----3------------3-0--
G-------4-------4-------4-----4-------4--------------------
D----------------------------------------------------------
A----------------------------------------------------------
E---3---------------3-------------3------------------------


Then after playing the last part twice 
play this little fill (mess around with it)
e---7------7---------2-----2--------
B---8-8-10---10-8-5--3-3-5---5-3-0-- 
G-----------------------------------
D-----------------------------------
A-----------------------------------
E-----------------------------------


check out http://www.timreynolds.com/tablature/ for more tim tabs
Comments