Reynolds Tim - Loose Interpretations Chords & Tabs

 

Loose Interpretations Chords & Tabs

Reynolds Tim Chords & Tabs

Version: 2 Type: Tab 0 ratings
1 star 2 stars 3 stars 4 stars 5 stars
comments

Loose Interpretations Tab

Loose Interpretations
by Tim Reynolds

 

Low E tuned down to a C.
The numbers with asterisks denote a slapped note.  To slap, hit the 
string with your thumb where the neck joins the body of the guitar. 
See notes from Timmy at the bottom. 


Opening Rythm 
e---------------------------------------3-3------------------------------- 
b-4~--4-------------4---4---------------4-4------------------------------- 
g-3~--3-------------3---3---------------3-3--------------3h5p3---------/5- 
d-------------------------------------------------------------5-3h5p3\1--- 
a--------------3*----------------3*---------------3*---------------------- 
C-0---0--3*-5*------0---0--3*-5*------0--0--3*-5*-------0---------------0- 
 

Main Riff 
e----------3----------3--3-------------3--------------------------------- 
b----------4----------4--4------6-4~\--4----------4--4------------------- 
g-----5-3--3----------3--3--3-5--------3----------3--3------------------- 
d-3-5-------------------------------------------------------------------- 
a------------------3*--------------------------3*------------------------ 
C-------0--0-3*-5*----0--0--------0----0-3*-5*----0--0------------------- 
 

Fill 1 
e-6-8-11----------------8-6---------------8-8/----------8-6--------------- 
b-6-8-11----------------8-6---------------8-8/----------8-6--------------- 
g------------------------------------------------------------------------- 
d------------------------------------------------------------------------- 
a-----------------3*-1*--------------3*------------------------------3*--- 
C-0-0----0*-0*h3h5----------0*-0*h3h5--0*-----9*h10p9-7*--0-0*-0*h3h5--0*- 


Then back to main riff 
 
[ Tab from: http://www.guitartabs.cc/tabs/r/reynolds_tim/loose_interpretations_tab_ver_2.html ]
Bridge (Key change) 
e-------------------------------------------------------- 
b-/5-5-/5-------/7-7-/7-------/8-8-/8------/7-7-/7------- 
g-/6-6-/6-------/7-7-/7-------/9-9-/9------/7-7-/7------- 
d-------------------------------------------------------- 
a--0----0-4-5-0--0----0--------0----0-------0----0------- 
C-----------------------6-7-9---------7-9-4-------7*6*4*- 
 

e---------------------------------------------6-7-8-6- 
b-/5-5-/5-------/7-7-/7---------/8-8-/8-------6-7-8-6- 
g-/6-6-/6-------/7-7-/7---------/9-9-/9--------------- 
d-----------------------0-4-5-0---------------5-6-7-5- 
a--0----0-4-5-0--0----0----------0----0-7-9-0--------- 
C----------------------------------------------------- 


Here's every note in a C blues scale on the first 12 frets


e:---1-2-3-----6---8------11-
B:---1-----4---6-7-8------11-
G:-0-----3---5-----8---10-11-
D:---1---3-4-5-----8---10----
A:---1---3-----6---8-9-10----
E:---1-2-3-----6---8------11-


Back to main riff. 

--------------------------  

Timmy's Notes
 
  Loose is alot of imrov, I could never learn all that , thats why it's 
called loose. The basic melody part is pretty brief, the low E is tuned 
down to C ( you probably already know that ) and the first part is 
like C minor blues shit. Then it goes to A7 to Asus13.  I'd go into more 
detail but if you've already learned those other tunes I'll just bet 
this much info is enough for ya. If not feel free to inquire again. Oh 
yeah , the rest of the strings are in standard tuning as is all my shit, 
at least most, 90% anyway. All the tunes you mentioned are in standard 
except for drop D on the low E , ( Stream, Letting Go ). But I bet you 
already know that by now. 

PEACE 
TR

Comments