Reynolds Tim - Hopeful Heresy Chords & Tabs

 

Hopeful Heresy Chords & Tabs

Reynolds Tim Chords & Tabs

Version: 2 Type: Tab 1 rating
1 star 2 stars 3 stars 4 stars 5 stars
comments

Hopeful Heresy Tab

   
Hopeful Heresy
By Tim Reynolds
Tabbed By FiS

Tuning: Standard


e----------------------------------------------------
B--0-1----1--1----1-----1---0-1---3----------1-----1-
G--0------0--0----2-----2---0-------2---2----2-----2-
D----------------------------------------------------
A-------2------------3----------------2---------3----
E-----3---------1--------------3-----------1---------

e---------------------------------------------
B--0-1----1--1----1-----3--------------1----x-
G--0------0--0----2---------4p2---0----2----x-
D---------------------------0-----0----3----x-
A-------2------------3------------2-------3-x-
E-----3---------1-----------3---3----1--------

e----------------------------------------------------
B--0-1----1--1----1-----1---0-1---3----------1-----1-
G--0------0--0----2-----2---0-------2---2----2-----2-
D----------------------------------------------------
A-------2------------3----------------2---------3----
E-----3---------1--------------3-----------1---------

e----------------------------------------
B--0-1----1--1----1-----3--------------1-
G--0------0--0----2-----0---4p2---0----2-
D---------------------------0-----0----3-
A-------2------------3------------2------
E-----3---------1-----------3---3----1---


part B

e---------------------------------------------------
B-------3----3-X---3----3--3/5-----1-X----1-------3-
G---2p0------0-X---0----0--0-------2-X----2---2p0---
D--------------X---------------------X--------------
A------------2-X---2---------------3-X----3---------
E---------3------3----3---------1------1------------

e----------------------------------------
B----3-X---3---3p1p0-0---0-0----1------3-
G----0-X---0-------------0-0----2----0---
D------X---0-------------2-2----3--------
A----2-X-3---------------2-2----3--0-----
E--3-------------------0------1----------

e-----------------------------------
B----3-X---3----3--3/5-----1-X----1-
G----0-X---0----0--0-------2-X----2-
D------X---------------------X------
A----2-X---2---------------3-X----3-
E--3-----3----3---------1------1----
[ Tab from: http://www.guitartabs.cc/tabs/r/reynolds_tim/hopeful_heresy_tab_ver_2.html ]
e----------0--0-------------0-----
B----------0--0------0------0-----
G----2h4---4--4-------------2---2-
D--2-------2--2----2--------3---3- x2
A-------------------------3-----3-
E--------0-------0-----1----------


part C

e------------------------0---------------3-
B----5---5-5---5---3-----1---3---1---------
G--2-----5-5---5---4---------2---2---2-----
D------------------------------------------
A------0---------3-------------------------
E------------3-------3---1-1-1-1-1-1---1---

e-------------------0---------------3-
B----5-5---5---3----1---3---1---------
G----5-5---5---4--------2---2---2-----
D-------------------------------------
A--0---------3------------------------
E--------3-------3--1-1-1-1-1-1---1---

e-------------------0---------------
B----5-5---5---3----1---3---1-------
G----5-5---5---4--------2---2-------
D-----------------------------------
A--0---------3----------------------
E--------3-------3--1-1-1-1-1-1-1-1-


part D

e----------------------------------------------------
B--0-1----1--1----1-----1---0-1---3----------1-----1-
G--0------0--0----2-----2---0-------2---2----2-----2-
D----------------------------------------------------
A-------2------------3----------------2---------3----
E-----3---------1--------------3-----------1---------

e-----------------------------------------------
B--0-1----1--1----1-----3--------------1---x--x-
G--0------0--0----2---------4p2---0----2---x--x-
D---------------------------0-----0----3---x--x-
A-------2------------3------------2--------x--x-
E-----3---------1-----------3---3----1----------

e----------------------------------------------------
B--0-1----1--1----1-----1---0-1---3----------1-----1-
G--0------0--0----2-----2---0-------2---2----2-----2-
D----------------------------------------------------
A-------2------------3----------------2---------3----
E-----3---------1--------------3-----------1---------

e--------------------------------------------------
B--0-1----1--1----1-----3--------------1------3----
G--0------0--0----2-----0---4p2---0----2----0------
D---------------------------0-----0----3-----------
A-------2------------3------------2----------------
E-----3---------1-----------3---3----1-----------3-

A, B, B, C, A, B, improv, B, C, D

Comments