Revs - Turning Japanese Chords & Tabs

 

Turning Japanese Chords & Tabs

Revs Chords & Tabs

Version: 2 Type: Tab 0 ratings
1 star 2 stars 3 stars 4 stars 5 stars
comments

Turning Japanese Tab

~~~~~~~~~~~~~~~~~~~~~~~~~~~~~~~~~~~~~~~
The Revs - Turning Japanese
~~~~~~~~~~~~~~~~~~~~~~~~~~~~~~~~~~~~~~~

The Revs are a really good Irish rock/punk band from Donegal,
at the moment theyre unheard of outside Ireland (and, strangely, Japan)
but this is the tab for their cool version of the classic "Turning Japanese"
Have done the tab for one guitar only, even though i think it is done on two.
Ive tabbed each bit of the song, but refer to the "Song Order" at the end of the
tab to see when each should be played.
Can't figure out the solo yet but will post an update if and when i do.
Enjoy!!

Tabbed by: Alan Good (kentucky_fried_children_@hotmail.com)
Tuning: Standard (EBGDAE)

INTRO:

E -15-15-15-15-13-13-10-10-13---15-15-15-15-13-13-10-10-13-------|
B -15-15-15-15-13-13-10-10-13---15-15-15-15-13-13-10-10-13-------|
G ---------------------------------------------------------------|
D ---------------------------------------------------------------|
A ---------------------------------------------------------------|
E ---------------------------------------------------------------|


LONG VERSE: (Starts with "I got a picture" lyric)

E------------------------------------------------------------------------------------------|
B------------------------------------------------------------------------------------------|
G-12-12-X-X-12-12-X-X-9-9-X-X-9-9-X-X-12-12-X-X-12-12-X-X-9-9-X-X-9-9--------9--7----------|
D-12-12-X-X-12-12-X-X-9-9-X-X-9-9-X-X-12-12-X-X-12-12-X-X-9-9-X-X-9-9---7----9--7----------|
A-10-10-X-X-10-10-X-X-7-7-X-X-7-7-X-X-10-10-X-X-10-10-X-X-7-7-X-X-7-7---7----7--5----------|
E-----------------------------------------------------------------------5------------------|


E------------------------------------------------------------------------------------------|
B--------------------------------------------------13-12-----------------------------------|
G-12-12-X-X-12-12-X-X-9-9-X-X-9-9-X-X-12-12--------------12---9-9-----7--8--9--------9--7--|
D-12-12-X-X-12-12-X-X-9-9-X-X-9-9-X-X-12-12---12-12-----------9-9---9-----------7----9--7--|
A-10-10-X-X-10-10-X-X-7-7-X-X-7-7-X-X-10-10-------------------7-7---------------7----7--5--|
E-------------------------------------------------------------------------------5----------|

BRIDGE: (the bit after "I often kiss you when there's no one else around)

E------------------------------------------------------------------------------|
B------------------------------------------------------------------------------|
G-----5--9--7--5--5--9--9--7--7-----5--9--7--5--5--9--9--7--7------------------|
D--5--5--9--7--5--5--9--9--7--7--5--5--9--7--5--5--9--9--7--7------------------|
A--5--3--7--5--3--3--7--7--5--5--5--3--7--5--3--3--7--7--5--5--(let ring)------|
E--3-----------------------------3---------------------------------------------|

SHORT VERSE: (starts with "I got your picture" lyric)

E------------------------------------------------------------------------------------------|
B--------------------------------------------------13-12-----------------------------------|
G-12-12-X-X-12-12-X-X-9-9-X-X-9-9-X-X-12-12--------------12---9-9-----7--8--9--------9--7--|
D-12-12-X-X-12-12-X-X-9-9-X-X-9-9-X-X-12-12---12-12-----------9-9---9-----------7----9--7--|
A-10-10-X-X-10-10-X-X-7-7-X-X-7-7-X-X-10-10-------------------7-7---------------7----7--5--|
E-------------------------------------------------------------------------------5----------|

CHORUS: ("i think im turning japanese..")

E----------------------------------------------------------------------------------------|
B----------------------------------------------------------------------------------------|
G--12-12-12-12-12-12-12-12-12-12-12-12-12-12-12-12---------------------------------------|
D--12-12-12-12-12-12-12-12-12-12-12-12-12-12-12-12-12-12-12-12------------12-10-9--------|
A--10-10-10-10-10-10-10-10-10-10-10-10-10-10-10-10-12-12-12-12-------9-12---------12-----|
E--------------------------------------------------10-10-10-10----10---------------------|

[ Tab from: http://www.guitartabs.cc/tabs/r/revs/turning_japanese_tab_ver_2.html ]
E----------------------------------------------------------------------------------------|
B----------------------------------------------------------------------------------------|
G--10-10-10-10-10-10-10-10-10-10-10-10-10-10-10-10---------------------------------------|
D--10-10-10-10-10-10-10-10-10-10-10-10-10-10-10-10-10-10-10-10------------10-9-7---------|
A---8--8--8--8--8--8--8--8--8--8--8--8--8--8--8--8-10-10-10-10-------7-10--------10------|
E---------------------------------------------------8--8--8--8-----8---------------------|


FILL: (done on the bass, but if you want to use your guitar, just do this)

E-------------------------|
B-------------------------|
G-------------------------|
D-5-5-4-4-3-3-4-4---------|
A-5-5-4-4-3-3-4-4---------|
E-3-3-2-2-1-1-2-2---------|


MIDDLE 8: (Begins with, "No sex no drugs no wine no women")

E-------------------------------------------------------------------------|
B-------------------------------------------------------------------------|
G--12----12----12----12----12----12----12----12---------------------------|
D--12----12----12----12----12----12----12----12----12----12----12----12---|
A--10----10----10----10----10----10----10----10----12----12----12----12---|
E--------------------------------------------------10----10----10----10---|

E-------------------------------------------------------------------------|
B-------------------------------------------------------------------------|
G--10----10----10----10----10----10----10----10---------------------------|
D--10----10----10----10----10----10----10----10----10----10----10----10---|
A---8-----8-----8-----8-----8-----8-----8-----8----10----10----10----10---|
E---------------------------------------------------8-----8-----8-----8---|


E-------------------------------------------------------------------------|
B-------------------------------------------------------------------------|
G--12-12-12-12-12-12-12-12-12-12-12-12-12-12-12-12------------------------|
D--12-12-12-12-12-12-12-12-12-12-12-12-12-12-12-12-12----12----12----12---|
A--10-10-10-10-10-10-10-10-10-10-10-10-10-10-10-10-12----12----12----12---|
E--------------------------------------------------10----10----10----10---|

E-------------------------------------------------------------------------|
B-------------------------------------------------------------------------|
G--10-10-10-10-10-10-10-10-10-10-10-10-10-10-10-10------------------------|
D--10-10-10-10-10-10-10-10-10-10-10-10-10-10-10-10-10---10----10----10----|
A---8--8--8--8--8--8--8--8--8--8--8--8--8--8--8--8-10---10----10----10----|
E---------------------------------------------------8----8-----8-----8----|


ENDING: (basically just the G-D-F-C chords of the chorus strummed,
but the riffs arent included. It is played on its own once, then twice more
with the solo played over it. The song fades out to a bassline)

E----------------------------------------------------------------------------------------|
B----------------------------------------------------------------------------------------|
G--12-12-12-12-12-12-12-12-12-12-12-12-12-12-12-12---------------------------------------|
D--12-12-12-12-12-12-12-12-12-12-12-12-12-12-12-12-12-12-12-12-12-12-12-12---------------|
A--10-10-10-10-10-10-10-10-10-10-10-10-10-10-10-10-12-12-12-12-12-12-12-12---------------|
E--------------------------------------------------10-10-10-10-10-10-10-10---------------|


E----------------------------------------------------------------------------------------|
B----------------------------------------------------------------------------------------|
G--10-10-10-10-10-10-10-10-10-10-10-10-10-10-10-10---------------------------------------|
D--10-10-10-10-10-10-10-10-10-10-10-10-10-10-10-10-10-10-10-10-10-10-10-10---------------|
A---8--8--8--8--8--8--8--8--8--8--8--8--8--8--8--8-10-10-10-10-10-10-10-10---------------|
E---------------------------------------------------8--8--8--8--8--8--8--8---------------|


SONG ORDER:

INTRO
LONG VERSE
BRIDGE
SHORT VERSE
CHORUS (X2)
FILL
BRIDGE
SHORT VERSE
CHORUS (X2, but without the last riff)
MIDDLE 8
CHORUS (X1)
ENDING (X3)
Comments