Revolver - Weasel Song Chords & Tabs

 

Weasel Song Chords & Tabs

Revolver Chords & Tabs

Version: 1 Type: Tab 0 ratings
1 star 2 stars 3 stars 4 stars 5 stars
comments

Weasel Song Tab

Song: Weasel song
Artist: Revolver
Album: the Unholy mother of fuck
Tabbed by unleashed

Tune down B

Intro (Verse)
B |----------------------------------------------------
F |----------------------------------------------------
D |----------------------------------------------------
A |----------------------------------------------------
E |--9-9-9--9--6--6-6-6--6-6--9-9-9--9--6--6-6-6--6-6--
B |--9-9-9--9--6--6-6-6--6-6--9-9-9--9--6--6-6-6--6-6--

B |------------------------------------------|
F |------------------------------------------|
D |------------------------------------------|
A |------------------------------------------|
E |--9-9-9--9--4--4-4-4-4--4-4-4-4--9-9-9-6--|
B |--9-9-9--9--4--4-4-4-4--4-4-4-4--9-9-9-6--|
                    * * *  *
  verse 2 "So when the latest trend is over.......
B |--------------------------------
F |--------------------------------
D |--------------------------------
A |--------------------------------
E |--9-9--9-6-6--8-8--5-5-5-5-5-5--
B |--9-9--9-6-6--8-8--5-5-5-5-5-5--
[ Tab from: http://www.guitartabs.cc/tabs/r/revolver/weasel_song_tab.html ]
B |-----------------------------------------------------------|
F |-----------------------------------------------------------|
D |-----------------------------------------------------------|
A |-----------------------------------------------------------|
E |--9-9--9--6-6-6--9/10\9--6-6-6--9-9--9--4-4-4-4--9-9--9-6--|
B |--9-9--9--6-6-6--9/10\9--6-6-6--9-9--9--4-4-4-4--9-9--9-6--|

  Bridge
B |-------------------------------------|
F |-------------------------------------|
D |-------------------------------------|
A |-------------------------------------|
E |--9-4-6--9-4-6-6--9-4-6-6--6-6--6-6--|
B |--9-4-6--9-4-6-6--9-4-6-6--6-6--6-6--|
  Solo???

Intro 1x
Verse 2x
verse(2) 1x
Verse 2x
Bridge1x
Solo???
Verse2x


and here are the lyrics:

Whatever happened to music?
NRJ? MTV? I mean what the fuck!
I wish someone would pull the plug.
You got so-called "artists"
bitching about being slaves.
You should know itīs all a fucking act.

So when the latest trend is over
and you wonder what to do.
You need a new angel īcuz you record donīt sell,
you should know when to call it quits,
but pop goes the weasel.
and so do you.

All you "whimp pissed kids"
acting like "youīre all that"
get a life... shut the fuck up!
Now itīs all about the nummbers,
itīs all about the sell, sell, sell.
Theyīre getting away whith it īcuz nobody cares anymore.

So when the latest trend is over...

Whatever happened to music?
Is there no quality control? I mean what the fuck?
I wish someone would pull the plug.
īCus no matter how you label it,
three million copys of crap,
still adds up the words biggest pile of shit!

So when the latest trend is over...
Comments