Revolver - Sucks To Be You Chords & Tabs

 

Sucks To Be You Chords & Tabs

Revolver Chords & Tabs

Version: 1 Type: Tab 0 ratings
1 star 2 stars 3 stars 4 stars 5 stars
comments

Sucks To Be You Tab

  Intro
E |--------------------------
B |--------------------------
G |--------------------------
D |--------------------------
A |--3-3-3--6-6-6-6-6/-------
E |--3-3-3--6-6-6-6-6/-------

   Play this 8 times
E |---------------------------------------
B |---------------------------------------
G |---------------------------------------
D |---------------------------------------
A |--3-3-3--6-6-6--6-6-0-0-0-0-0--0-0--0--
E |--3-3-3--6-6-6--6-6-0-0-0-0-0--0-0--0--
                       * * * * *  *
  Chorus
E |-------------------------------
B |-------------------------------
G |-------------------------------
D |-------------------------------
A |--1-1-1-1-1-1-1--2-3-4--4-4-4--
E |--1-1-1-1-1-1-1--2-3-4--4-4-4--

  Bass Guitar bridge
  |-- ----------------
  |--5-3--------------
  |------5-4-3--------
  |------------4-3-4--
[ Tab from: http://www.guitartabs.cc/tabs/r/revolver/sucks_to_be_you_tab.html ]
  After Bass play this 5 times
E |--------------------
B |--------------------
G |--------------------
D |--------------------
A |--3-3-3--6-6-6--6-6-
E |--3-3-3--6-6-6--6-6-
 
  Second Guitar
E |-------------------------------------
B |-------------------------------------
G |-------------------------------------
D |-------------------------------------
A |-5-5-5-5-5-5-5-5-5-5-5-5-5-5-5-5--5/-
E |-------------------------------------

E |--------------------------------------
B |--------------------------------------
G |--------------------------------------
D |--------------------------------------
A |-3-3-3--6-6-6--6-6-0-0-0-0-0--0-0--0--
E |-3-3-3--6-6-6--6-6-0-0-0-0-0--0-0--0--
                      * * * * *  *

  Chorus
E |------------------------------|-------------
B |------------------------------|-------------
G |------------------------------|-------------
D |------------------------------|-------------
A |-1-1-1-1-1-1-1--2-3-4--4-4-4--|--5^---------
E |-1-1-1-1-1-1-1--2-3-4--4-4-4--|-------------

E |------------------------------------
B |------------------------------------
G |------------------------------------
D |------------------------------------
A |-3-3-3-3--6-6-6-6---0-0-0-0-0--0--9-
E |-3-3-3-3--6-6-6-6---0-0-0-0-0--0--9-
  Outro
E |------------------------------|---------------------
B |------------------------------|---------------------
G |------------------------------|---------------------
D |------------------------------|---------------------
A |-1-1-1-1-1-1-1--2-3-4--4-4-4--|-3-3-3--4-4-4-4--4/--
E |-1-1-1-1-1-1-1--2-3-4--4-4-4--|-3-3-3--4-4-4-4--4/--

I know there is more in the song like the solo...
But i cant Figture it... Sorry.
Comments