Revolution Smile - The Gift Chords & Tabs

 

The Gift Chords & Tabs

Revolution Smile Chords & Tabs

Version: 1 Type: Tab 0 ratings
1 star 2 stars 3 stars 4 stars 5 stars
comments

The Gift Tab

   
THIS IS A BAND MOST PEOPLE DONT KNOW ABOUT. THEY PLAYED ON THE 2ND STAGE AT
OZZFEST 2003 AND THERE WEBSTIE IS  www.therevolutionsmile.comf. first all "the
revoltuion smile" kicks ass. i saw them at ozzfest and they were incredible. this
is the third song on there album "above the noise" its really easy to play. this
is my first tab and i hope its right...well here it is ENJOY!!! (HAVE DISTORTION WHILE PLAYING)

tuning is D,A,D,G,B,E


E----------------------------------------------------------------------------
B----------------------------------------------------------------------------
G----------------------------------------------------------------------------
D----------------------------------------------------------------------------
A-------------------5--------------------------------------------------------
D-000000000000000035---------------------------------------------------------

when he starts singing u hit "0" a few more times. like this.........

E----------------------------------------------------------------------------
B----------------------------------------------------------------------------
G----------------------------------------------------------------------------
D----------------------------------------------------------------------------
A------------------------------------------------5---------------------------
D-00000000000000000000000000000000000000000000035----------------------------


chorus
[ Tab from: http://www.guitartabs.cc/tabs/r/revolution_smile/the_gift_tab.html ]
E----------------------------------------------------------------------------
B----------------------------------------------------------------------------
G----------------------------------------------------------------------------
D----------------------------------------------------------------------------
A--2------5-----0------------------------------------------------------------
D--2------5-----0000000000000000000000000------------------------------------

then

E----------------------------------------------------------------------------
B----------------------------------------------------------------------------
G----------------------------------------------------------------------------
D----------------------------------------------------------------------------
A--22--XX--55--XXXX----0--------------------5--------------------------------
D--22--XX--55--XXXX----000000000000000000035---------------------------------

SOLO

E----------------------------------------------------------------------------
B--13------------------------------------------------------------------------
G-------14-11-----12-7------12-14----10--------------------------------------
D----------------------------------------------------------------------------
A----------------------------------------------------------------------------
D----------------------------------------------------------------------------


well there it is for those of u who know the revolution smile. well i going to
write a few more tabs down from them. hopefully u heard them before and like them
cuz there really cool.

tabbed by JIMMY M.
Comments