Revolution Of A New - Youth Of One Chords & Tabs

 

Youth Of One Chords & Tabs

Revolution Of A New Chords & Tabs

Version: 1 Type: Bass Tab 0 ratings
1 star 2 stars 3 stars 4 stars 5 stars
comments

Youth Of One Bass Tab

"youth of one" by Revolution of a new

Intro
----------------------------------------------------------------------------|
----------------------------------------------------------------------------|
----------------------------------------------------------------------------| Repeat
-----9-----9----9-------5-----5----5-------7-----7---7-------9-----9---9----|   2x
-7-7---7-7---7------3-3---3-3---3------5-5---5-5---5-----7-7---7-7---7------|

First Verse
------------------------------------------------------------------------|
------------------------------------------------------------------------|
------------------------------------------------------------------------| Repeat
-12-11-9---9-9-9-9-9-9-9-9--5-5-5-5-5-5-5-5--7-7-7-7-7-7-7-7---12-11-9--|   2x
-10--9-7---7-7-7-7-7-7-7-7--3-3-3-3-3-3-3-3--5-5-5-5-5-5-5-5---10--9-7--|
[ Tab from: http://www.guitartabs.cc/tabs/r/revolution_of_a_new/youth_of_one_btab.html ]
Second Verse
------------------------------------------------------------------------|
------------------------------------------------------------------------|
------------------------------------------------------------------------| Repeat
-9-9-9-9-9-9-9-9-12-11-5-5-5-5-5-5-5-5-12-11-7-7-7-7-7-7-7-7-12-11-9----|   3x
-7-7-7-7-7-7-7-7-10--9-3-3-3-3-3-3-3-3-10--9-5-5-5-5-5-5-5-5-10--9-7----|

First Verse
------------------------------------------------------------------------|
------------------------------------------------------------------------|
------------------------------------------------------------------------| Repeat
-12-11-9---9-9-9-9-9-9-9-9--5-5-5-5-5-5-5-5--7-7-7-7-7-7-7-7---12-11-9--|   2x
-10--9-7---7-7-7-7-7-7-7-7--3-3-3-3-3-3-3-3--5-5-5-5-5-5-5-5---10--9-7--|

Outro (almsot the same as intro)
-----------------------------------------------------------------------------|
-----------------------------------------------------------------------------|
-----------------------------------------------------------------------------| Repeat
-----9-----9----9-------5-----5----5-------7-----7---7-------9-----9---9-----|   2x
-7-7---7-7---7------3-3---3-3---3------5-5---5-5---5-----7-7---7-7---7--7----|
Comments