Revolting Cocks - Crackin Up Chords & Tabs


Crackin Up Chords & Tabs

Revolting Cocks Chords & Tabs

Version: 2 Type: Tab 0 ratings
1 star 2 stars 3 stars 4 stars 5 stars

Crackin Up Tab

#----------------------------------PLEASE NOTE---------------------------------#
#This file is the author's own work and represents their interpretation of the #
#song. You may only use this file for private study, scholarship, or research. #
From: (Burning Inside)
Date: 18 Oct 95 23:44:49 -0400
Subject: TAB: "Crackin' Up" by the Revolting Cocks

Crackin' Up     by the Revolting Cocks
                from the album "Linger Ficken' Good... and other
                        Barnyard Oddities"
                words and music by Al Jourgensen, Luc Van Acker,
                        Bill Rieflin, Chris Connelley, Paul Barker
                tabbed by Tom Mallon
[ Tab from: ]
Main Guitar Riff
E --13-13-13-13-xxxx-13-xxxx-13--13-xxx-15-15-15-15-15-15-|
B --13-13-13-13-xxxx-13-xxxx-13--13-xxx-15-15-15-15-15-15-|
G --13-13-13-13-xxxx-13-xxxx-13--13-xxx-15-15-15-15-15-15-|
D --------------------------------------------------------|
A --------------------------------------------------------|
E --------------------------------------------------------|

Main Bass Riff                     *slap these notes
G --10---8-----------10---8--------10---10-10-------|
D -----------6---8-------------6--------------------|
A --------------------------------------------------|
E --------------------------------------------------|

Bridge Guitar Riff (underneath solo)
E --1-1-1-1-xxxx-1-xxxx-1--1-xxx-3-3-3-3-3-3-|
B --1-1-1-1-xxxx-1-xxxx-1--1-xxx-3-3-3-3-3-3-|
G --1-1-1-1-xxxx-1-xxxx-1--1-xxx-3-3-3-3-3-3-|
D -------------------------------------------|
A -------------------------------------------|
E -------------------------------------------|