Revis - Seven Chords & Tabs

 

Seven Chords & Tabs

Revis Chords & Tabs

Version: 2 Type: Tab 0 ratings
1 star 2 stars 3 stars 4 stars 5 stars
comments

Seven Tab

   
This is a great song by the band Revis.  This is tabbed for one guitar.
It is in standard tuning.

Intro (clean)
e-------0---0-------0---------------0000---
B-1h3p1-0-0-------0-0---------------0000---
G-------0-------0---0-0-----0-0-----0000--- x2
D-------4-----4-----4------4-4----2-2222---
A-------2-----------5---5-------3---3333---
E-------0-----------0---------------0000---

Verse (clean)
e-0-0-00-0--0-000--0-0000---
B-0-0-00-0--0-000--3-3333---
G-2-2-22-2--0-000--0-0000--- x4
D-2-2-22-2--2-222--4-4444---
A-0-0-00-0--3-333--5-5555---
E-0-0-00-0--0-000--0-0000---

Bridge 1 (clean)
e-0-0-00-0--0-000--0-0000--0-0-00-0--0-000--0000---
B-0-0-00-0--0-000--3-3333--0-0-00-0--0-000--3333---
G-2-2-22-2--0-000--0-0000--2-2-22-2--0-000--0000---
D-2-2-22-2--2-222--4-4444--2-2-22-2--2-222--4444---
A-0-0-00-0--3-333--5-5555--0-0-00-0--3-333--5555---
E-0-0-00-0--0-000--0-0000--0-0-00-0--0-000--0000---

Chorus 1 (clean)
e-00000--22222--000-00-000---
B-00000--33333--000-00-000---
G-00000--22222--000-00-000---
D-22222--00000--222-22-222---
A-22222---------333-33-333---
E-00000---------000-00-000---

Intro
Verse

Bridge 2 (clean)
e-0-0-00-0--0-000--0-0000---
B-0-0-00-0--0-000--3-3333---
G-2-2-22-2--0-000--0-0000---
D-2-2-22-2--2-222--4-4444---
A-0-0-00-0--3-333--5-5555---
E-0-0-00-0--0-000--0-0000---

Bridge 2 (distortion)
-0-0-00-0--0---XXX
-0-0-00-0--0---XXX
-2-2-22-2--0---XXX
-2-2-22-2--2---XXX
-0-0-00-0--3---XXX
-0-0-00-0--0---XXX

Chorus 2 (distortion)
e-00000--22222--000-00-000--7b--00000--22222--000-00-000--3b---
B-00000--33333--000-00-000------00000--33333--000-00-000-------
G-00000--22222--000-00-000------00000--22222--000-00-000------- x2 
D-22222--00000--222-22-222------22222--00000--222-22-222-------      
A-22222---------333-33-333------22222---------333-33-333-------
E-00000---------000-00-000------00000---------000-00-000-------
  (no "3b" bend on the second time through)


Solo 1 (distortion)
e-----------------------------------------------------------------XXXXXX
B-----------------------------------------------------------------XXXXXX
G-12-12-12-12-12-12-12-12-11-11-11-11-11-11-11-11-5-5-5-5-5-5-5-5-XXXXXX
D-----------------------------------------------------------------XXXXXX
A-10-10-10-10-10-10-10-10--9--9--9--9--9--9--9--9-3-3-3-3-3-3-3-3-XXXXXX
E-----------------------------------------------------------------XXXXXX

e-----------------------------------------------------------------XXXXXX
B-----------------------------------------------------------------XXXXXX
G-12-12-12-12-12-12-12-12-11-11-11-11-11-11-11-11-5-5-5-5-5-5-5-5-XXXXXX
D-----------------------------------------------------------------XXXXXX
A-10-10-10-10-10-10-10-10--9--9--9--9--9--9--9--9-3-3-3-3-3-3-3-3-XXXXXX
E-----------------------------------------------------------------XXXXXX
[ Tab from: http://www.guitartabs.cc/tabs/r/revis/seven_tab_ver_2.html ]
e---------------------------------------------------------------------------
B---------------------------------------------------------------------------
G-12-12-12-12-12-12-12-12-11-11-11-11-11-11-11-11-15-15-15-15-5-5-5-5-5-5-5-
D---------------------------------------------------------------------------
A-10-10-10-10-10-10-10-10--9--9--9--9--9--9--9--9-12-12-12-12-3-3-3-3-3-3-3-
E---------------------------------------------------------------------------

---XXXXXXXX
---XXXXXXXX
5--XXXXXXXX
---XXXXXXXX
3--XXXXXXXX
---XXXXXXXX

e-------------------------------------------------------------------------
B-------------------------------------------------------------------------
G-12-12-12-12-12-12-12-12-11-11-11-11-11-11-11-11-15-15-15-15-15-15-15-15-
D-------------------------------------------------------------------------
A-10-10-10-10-10-10-10-10--9--9--9--9--9--9--9--9-12-12-12-12-12-12-12-12-
E-------------------------------------------------------------------------

-XXXXXXXX
-XXXXXXXX
-XXXXXXXX
-XXXXXXXX
-XXXXXXXX
-XXXXXXXX

Bridge 2 (Distortion part only)
Chorus 2

Solo 2 (Distortion)
e---------------------------------------------------------------------------
B---------------------------------------------------------------------------
G-12-12-12-12-12-12-12-12-11-11-11-11-11-11-11-11-5-5-5-5-5-5-5-5-7-7-7-7-7-
D---------------------------------------------------------------------------
A-10-10-10-10-10-10-10-10--9--9--9--9--9--9--9--9-3-3-3-3-3-3-3-3-5-5-5-5-5-
E---------------------------------------------------------------------------

-------
-------
-7-7---
-------
-5-5---
-------

e---------------------------------------------------------------------------
B---------------------------------------------------------------------------
G-12-12-12-12-12-12-12-12-11-11-11-11-11-11-11-11-5-5-5-5-5-5-5-5-7-7-7-7-7-
D---------------------------------------------------------------------------
A-10-10-10-10-10-10-10-10--9--9--9--9--9--9--9--9-3-3-3-3-3-3-3-3-5-5-5-5-5-
E---------------------------------------------------------------------------

-------
-------
-7-7---
-------
-5-5---
-------

e---------------------------------------------------------------------------
B---------------------------------------------------------------------------
G-12-12-12-12-12-12-12-12-11-11-11-11-11-11-11-11-15-15-15-15-5-5-5-5-7-7-7-
D---------------------------------------------------------------------------
A-10-10-10-10-10-10-10-10--9--9--9--9--9--9--9--9-12-12-12-12-3-3-3-3-5-5-5-
E---------------------------------------------------------------------------

-------------
-------------
-7-7-7-7-7---
-------------
-5-5-5-5-5---
-------------

e---------------------------------------------------------------------------
B---------------------------------------------------------------------------
G-12-12-12-12-12-12-12-12-11-11-11-11-11-11-11-11-15-15-15-15-15-15-15-15-7-
D---------------------------------------------------------------------------
A-10-10-10-10-10-10-10-10--9--9--9--9--9--9--9--9-12-12-12-12-12-12-12-12-5-
E---------------------------------------------------------------------------

-----------------
-----------------
-7-7-7-7-7-7-7---
-----------------
-5-5-5-5-5-5-5---
-----------------

Bridge 2 (Distortion only, let ring)
Comments