Revis - Seven Chords & Tabs

 

Seven Chords & Tabs

Revis Chords & Tabs

Version: 1 Type: Tab 0 ratings
1 star 2 stars 3 stars 4 stars 5 stars
comments

Seven Tab

   
Artist - Revis
Title - Seven

Tabbed By: Drew Villareale
email: Villareale52@yahoo.com


My First Tab...lemme know


^: Harmonics
x: Mute
b: bend
h: hammer



Intro - Clean                                              First 
					                   Time  Add 2
 C#m      Em      C                        C             
----------------------------------------------0-0-0--|    |-0-0---|
--1h3-----------------0-----------------------0 0-0--|    |-0-0---|
------0--------0------------4-----4---4-------0-0-0--|x2  |-0-0---| 
--------2----2------2-----5---5-----0---5---2-2-2-2--|    |-2-2---|
--3--------2------3-----------------------3---3-3-3--|    |-3-3---|
-----------0----------------------------------0-0-0--|    |-0-0---|
                                             (Strum)


Verse/Chorus - Clean (Listen for Strumming)

--3---3---3----
--3---3---3----
--0---0---0----
--2---0---2---- x4
--2---2---3----
--0---3---0----



Pre-Chorus - Clean - Switch to Distortion

--5---8-----
--5---8----- 
--6---9----- 
--7---10----  x2   (First Clean, Second Distorted)
--7---10----
--5---8-----
 


Chorus - Heavy Distortion - Listen for Strumming (Its easy)

-3^-3^---3^----0---3---8---------0---3---8--------0---3---8-------
-3^-3^---3^----0---3---8---------0---3---8--------0---3---8-------
-3^-3^---3^----1---4---9---11b---1---4---9---7b---1---4---9---11b-
-3^-3^---3^----2---5---10--------2---5---10-------2---5---10------
-3^-3^---3^----2---5---10--------2---5---10-------2---5---10------
-3^-3^---3^----0---3---8---------0---3---8--------0---3---8-------


Solo Thing One - Heavy Distortion

----------------------------------------------------------------------x-x-x-x-x-x-x-x-
----------------------------------------------------------------------x-x-x-x-x-x-x-x-
12-12-12-12-12-12-12-12-12/11-11-11-11-11-11-11-11-11/5-5-5-5-5-5-5-5-x-x-x-x-x-x-x-x-
----------------------------------------------------------------------x-x-x-x-x-x-x-x-
----------------------------------------------------------------------x-x-x-x-x-x-x-x-
----------------------------------------------------------------------x-x-x-x-x-x-x-x-
[ Tab from: http://www.guitartabs.cc/tabs/r/revis/seven_tab.html ]
----------------------------------------------------------------------x-x-x-x-x-x-x-x-
----------------------------------------------------------------------x-x-x-x-x-x-x-x-
12-12-12-12-12-12-12-12-12/11-11-11-11-11-11-11-11-11/5-5-5-5-5-5-5-5-x-x-x-x-x-x-x-x-
----------------------------------------------------------------------x-x-x-x-x-x-x-x-
----------------------------------------------------------------------x-x-x-x-x-x-x-x-
----------------------------------------------------------------------x-x-x-x-x-x-x-x-

-------------------------------------------------------------------------x-x-x-x-x-x-x-x-
-------------------------------------------------------------------------x-x-x-x-x-x-x-x-
12-12-12-12-12-12-12-12-12/11-11-11-11-11-11/15-15-15-15/5-5-5-5-5-5-5-5-x-x-x-x-x-x-x-x- 
-------------------------------------------------------------------------x-x-x-x-x-x-x-x-
-------------------------------------------------------------------------x-x-x-x-x-x-x-x-
-------------------------------------------------------------------------x-x-x-x-x-x-x-x-

-----------------------------------------------------------------------------x-x-x-x-x-x-x-x-
-----------------------------------------------------------------------------x-x-x-x-x-x-x-x-
12-12-12-12-12-12-12-12-12/11-11-11-11-11-11/5-5-5-5/15-15-15-15-15-15-15-15-x-x-x-x-x-x-x-x- 
-----------------------------------------------------------------------------x-x-x-x-x-x-x-x-
-----------------------------------------------------------------------------x-x-x-x-x-x-x-x-
-----------------------------------------------------------------------------x-x-x-x-x-x-x-x-



Pre-Chorus - Distorted

--5---8-----
--5---8----- 
--6---9----- 
--7---10----  
--7---10----
--5---8-----



Chorus - Heavy Distortion - Listen for Strumming (Its easy)

-3^-3^---3^----0---3---8---------0---3---8--------0---3---8-------
-3^-3^---3^----0---3---8---------0---3---8--------0---3---8-------
-3^-3^---3^----1---4---9---11b---1---4---9---7b---1---4---9---11b- 
-3^-3^---3^----2---5---10--------2---5---10-------2---5---10------
-3^-3^---3^----2---5---10--------2---5---10-------2---5---10------
-3^-3^---3^----0---3---8---------0---3---8--------0---3---8-------



Solo Thing Two - Heavy Distortion (Same as Solo Thing One but without the rests)



Outro - Heavy Distortion - Volume Fade Out

--5---|-8-----
--5---|-8----- 
--6---|-9----- let ring
--7---|-10----  
--7---|-10----
--5---|-8-----
Comments