Revis - Living Rooms Chords & Tabs

 

Living Rooms Chords & Tabs

Revis Chords & Tabs

Version: 1 Type: Tab 0 ratings
1 star 2 stars 3 stars 4 stars 5 stars
comments

Living Rooms Tab

Artist: Revis
Title: Living Rooms

Tabbed By: Drew Villareale - Villareale52@yahoo.com
 
X or + = Palm Mute


Intro - Clean

----------------0--0----0----------
----------------0--0----0----------
---2-2---2------4--4----2----------  x6
---4-4---2------4--4----2----------
---4-4-----------------------------
-----------------------------------


Chorus - Clean (Go Inside...)

-----------------------------0-----
--------2--------------------0-----
--------2---4-4444--7---2-2--2-----
--4-4---0---4-4444--7---4-4--2-----
--4-4-------2-2222--5---4-4--------
--2-2------------------------------



Chorus - Distorted (1:20)
              ++++  
---------------------------------------------------
---------------------------------------------------
--------2---4-4444---7\6/7\6/7\6/7-----------------
--4-4---2---4-4444---7\6/7\6/5\6/5-----------------
--4-4---0---2-2222---5------------------------------
--2-2----------------------------------------------
              ++++    
             
               +++
---------------------------------------------------
---------------------------------------------------
--------22---4-444---7---7-------------------------
--4-4---22---4-444---7-----5-----------------------
--4-4---00---2-222---5-----------------------------
--2-2----------------------------------------------
	       +++

              ++++  
---------------------------------------------------
---------------------------------------------------
--------2---4-4444---7\6/7\6/7\6/7-----------------
--4-4---2---4-4444---7\6/7\6/5\6/5-----------------
--4-4---0---2-2222---5-----------------------------
--2-2----------------------------------------------
              ++++

---------------------------------------------------
---------------------------------------------------
--------2---4--4---7-------------------------------
--4-4---2---4--4---7-------------------------------
--4-4---0---2--2---5-------------------------------
--2-2----------------------------------------------
                


Solo -
[ Tab from: http://www.guitartabs.cc/tabs/r/revis/living_rooms_tab.html ]
-------------------------------9h10p9------ 12p0---
---2b3b2------5b------9b---------------------------
--------------------------9-------------9-----------
---------4-----------------------------------------
---------------------------------------------------
---------------------------------------------------

---17p14-16-16h17-17----14-16-17-12---14-16-17-7b--
---------------------------------------------------
---------------------------------------------------
---------------------------------------------------
---------------------------------------------------
---------------------------------------------------


Chorus - Distorted
              XXXX  
---------------------------------------------------
---------------------------------------------------
--------2---4-4444---7\6/7\6/7\6/7-----------------
--4-4---2---4-4444---7\6/7\6/5\6/5-----------------
--4-4---0---2-2222---5\4/5\4/5\4/5-----------------
--2-2----------------------------------------------
              XXXX    
             
               XXX
---------------------------------------------------
---------------------------------------------------
--------22---4-444---7---7-------------------------
--4-4---22---4-444---7-----5-----------------------
--4-4---00---2-222---5-----------------------------
--2-2----------------------------------------------
	       XXX

              XXXX  
---------------------------------------------------
---------------------------------------------------
--------2---4-4444---7\6/7\6/7\6/7-----------------
--4-4---2---4-4444---7\6/7\6/5\6/5-----------------
--4-4---0---2-2222---5\4/5\4/5\4/5-----------------
--2-2----------------------------------------------

---------------------------------------------------
---------------------------------------------------
--------2---4--4---7-------------------------------
--4-4---2---4--4---7-------------------------------
--4-4---0---2--2---5-------------------------------
--2-2----------------------------------------------


Tiny Outro Solo - 

--12-17-14-16b-------------------------------------
---------------------------------------------------
---------------------------------------------------
---------------------------------------------------
---------------------------------------------------
---------------------------------------------------
Comments