Revis - Caught In The Rain Chords & Tabs

 

Caught In The Rain Chords & Tabs

Revis Chords & Tabs

Version: 2 Type: Tab 0 ratings
1 star 2 stars 3 stars 4 stars 5 stars
comments

Caught In The Rain Tab

#-----------------------------------------------------------------------------#
#-- File created with Instab - http://www.pconline.com/~smcarey/instab.html --#
#-----------------------------------------------------------------------------#

Author/Artist: Revis
Title: Caught in the Rain
Transcribed by: Andrew Biles

This is not totally accurate but it's a start and if some1 would like to build
upon this tab it would be good.  I didn't think this was the easiest song to work
out at all so some parts may be more obvious to you than they were to me.

Intro
-------------------------------|-----------------------------------------|----
-x-x-x-x-x-x-x-x-x-x-x-x-x-x-x-|-----------------------------------------|----
-x-x-x-x-x-x-x-x-x-x-x-x-x-x-x-|-6-----------------9---------------------|----
-x-x-x-x-x-x-x-x-x-x-x-x-x-x-x-|-6-----------------9---------------------|----
-7-7-7-5-5-5-4-4-7-7-7-5-5-4-4-|-4-----------------7---------------------|----
-------------------------------|-4-----------------7---------------------|----
 guitar 1                        distortion                          x2       

-------------------------------|-----------------------------------------|----
-------------------------------|-----------------------------------------|----
-------------------------------|---6p4h6p4h6p4h6p4---9-9-9-9-11-11-11-11-|----
-------------------------------|-----------------------------------------|----
-------------------------------|-----------------------------------------|----
-------------------------------|-----------------------------------------|----
 guitar 2                        effect                              x2       

-------------------------------|----9^--9^--9^--9^-----------------------|----
-------------------------------|--------------------10-10-10-9-9-9-7-7-7-|----
-------------------------------|--------------------x--x--x--x-x-x-x-x-x-|----
-------------------------------|--------------------7--7--7--6-6-6-4-4-4-|----
-------------------------------|-----------------------------------------|----
-------------------------------|-----------------------------------------|----
 guitar 3 (2nd time round)                                                    

Verse
-x-x-x-x-x-x-x-x-x-x-x-x-x-x-x-x-x-x-x-x-x-x-x-x-x-x-x-x-x-x-x-x-x-x-x-x-x----
-x-x-x-x-x-x-x-x-x-x-x-x-x-x-x-x-x-x-x-x-x-x-x-x-x-x-x-x-x-x-x-x-x-x-x-x-x----
-x-x-x-x-x-x-x-x-x-x-x-x-x-x-x-x-x-x-x-x-x-x-x-x-x-x-x-x-x-x-x-x-x-x-x-x-x----
------------------------------------------------------------------------------
------------------------------------------------------------------------------
------------------------------------------------------------------------------
 guitar 1                                                               
[ Tab from: http://www.guitartabs.cc/tabs/r/revis/caught_in_the_rain_tab_ver_2.html ]
------------------------------------------------------------------------------
------------------------------------------------------------------------------
-9--9--9--9--9--9--9--9--9--9--9--9--9--9--9--9--9--9--9--9--11-11-11-12-12---
-x--x--x--x--x--x--x--x--x--x--x--x--x--x--x--x--x--x--x--x--x--x--x--x--x----
-7--7--7--7--7--7--7--7--7--7--7--7--7--7--7--7--7--7--7--7--9--9--9--10-10---
------------------------------------------------------------------------------
 guitar 2 ...we're always the same, we're almost at home now                  

Chorus
--------------------------------------------------------------
--------------------------------------------------------------
-------------------------9---7-----------6--------------------
-------------------------9---7-----------6------6-------------
-------------------------7---5-----------4------6-------------
------------------------------------------------4-------------
 guitar 1 ..and it was you,    who could get me high                          

-15-15-15-15--------------------------------------------------
--------------------------------------------------------------
----------------------------------------------------6^---6^---
--------------------------------------------------------------
-------------------------------------------------------4----4-
--------------------------------------------------------------
 guitar 2                                                                     

Small Bridge
-x-x-x-x-x-x-
-x-x-x-x-x-x-
-x-x-x-x-x-x-
-------------
-------------
-------------
 guitar 1                                                                      

 guitar 2 
-------------
-------------
-6-6-7-6-4-6-
-------------
-------------
-------------
(lightly picked)                                                    

Verse 2 (guitar 1 same as verse 1)
------------------------------|-----------------------------------------------
------------------------------|-----------------------------------------------
------------------------------|-----------------------------------------------
-6-6-6-6----------------------|-----------------------------------------------
-4-4-4-4------------4-4-4-4-4-|-/\/\/\/\/\-----------------------4-4-4-4-4----
--------------------2-2-2-2-2-|-------------2-3-2-5-2-3-2-3-2-5--2-2-2-2-2----
 guitar 2                 x2    ^pickscrape (effect)                         

-----------------
-----------------
-----------6-6-6-
--4--5--7--------
-----------------
-----------------
I'm not sure about this last part of the verse, but it may be something like that
                                                                              
Solo
--9^----------9^----------9^---12^----------12^----------12h14p12--9^---------
-----10-10-------10-10-------------10-10--------10-10-----------------10-10---
-----------11----------11----------------11-----------11----------------------
------------------------------------------------------------------------------
------------------------------------------------------------------------------
------------------------------------------------------------------------------

----9^----------9^--15^--
-------10-10-------------
-11----------11----------
-------------------------
-------------------------
-------------------------
                    ^gradually bend and keep picking

You're going to have to sort out the order of it, and the outro is similar notes to the solo
Comments