Reverie Sound Revue - One Marathon Chords & Tabs

 

One Marathon Chords & Tabs

Reverie Sound Revue Chords & Tabs

Version: 1 Type: Tab 0 ratings
1 star 2 stars 3 stars 4 stars 5 stars
comments

One Marathon Tab

   
Reverie Sound Revue is a new band hailing from Canada.  Bryce Gracey, Patrick Walls, Marc
De Pape, JM and Lisa Lobsinger make up this band whose music is fueled by pop guitar and
catchy hooks. Since they formed in 2002, they have opened for The Dears and Modest Mouse,
and have appeared on Much Music's "Going Coastal" and CBC's "ZeD TV."

-------------------------------------------------------------------------------
			     ONE MARATHON - Reverie Sound Revue
-------------------------------------------------------------------------------
Tabbed by: Kt
Email: intresting_nobody@hotmail.com

Tuning: standard

intro                            x4
e|--------------------------------|------------------------------------------|
B|-------5---------------------5--|------------------------------------------|
G|---6-------6---4-----4---4h6----|------------------------------------------|
D|-7---7-------7-----7---7--------|------------------------------------------|
A|--------------------------------|------------------------------------------|
E|--------------------------------|------------------------------------------|

verse                            x2                 x2                  all x2
e|--------------------------------|------------------|-----------------------|
B|-------5---------------------5--|------------------|-----------------------|
G|---6-------6---4-----4---4h6----|-------8----------|-----------------------|
D|-7---7-------7-----7---7--------|---6-------6---9--|-----------------------|
A|--------------------------------|-7---7-------7----|-----------------------|
E|--------------------------------|------------------|-----------------------|

   (get rhythm from the song)               x2       (rhythm from song)
e|-4-----------------------|-----------------|--4---|------------------------|
B|-5-----------------------|-----------------|--5---|-0--------7-------------|
G|-6-----------------------|-------8---------|--6---|-8--------8-------------|
D|-7-----------------------|---6-------6---9-|--7---|-6--------6-------------|
A|-------------------------|-7---7-------7---|------|-7--------7-------------|
E|-------------------------|-----------------|------|------------------------|
[ Tab from: http://www.guitartabs.cc/tabs/r/reverie_sound_revue/one_marathon_tab.html ]
chorus                             x3
e|----------------------------------|----------------------------------------|
B|-------5-----------------7--------|--------5-----5-------------------------|
G|---6-----6---6-------4-----4---4--|----2-----2-----2-----------------------|
D|-7---7-----7-------6---6-----6----|--4---4-----4-----4---------------------|
A|----------------------------------|----------------------------------------|
E|----------------------------------|----------------------------------------|

                                   x3
e|----------------------------------|----------------------------------------|
B|-------5-----------------7--------|--------5-----5----------7--------5-----|
G|---6-----6---6-------4-----4---4--|----2-----2-----2------4------2-----2---|
D|-7---7-----7-------6---6-----6----|--4---4-----4-----4--6------4---4-----4-|
A|----------------------------------|----------------------------------------|
E|----------------------------------|----------------------------------------|

interlude                       x6
e|-------------------------------|-------------------------------------------|
B|-------------------------------|---------5-5-------------7-7-5-5-----------|
G|---6------4------2------2---4--|-----6-6-----6-6-----4-4-------------------|
D|-7------6------4------4---6----|-7-7-------------6-6-----------------------|
A|-------------------------------|-------------------------------------------|
E|-------------------------------|-------------------------------------------|
                                    x6
e|-----------------------------------|-----4---------------------------------|
B|---------5-5-------------0-0-2-2---|-----5---------------------------------|
G|-----2-2-----2-2-----2-2-----------|-----6---------------------------------|
D|-4-4-------------4-4---------------|-----7---------------------------------|
A|-----------------------------------|---------------------------------------|
E|-----------------------------------|---------------------------------------|

That's it. Verse again, then chorus again, and in the second chorus play the first
section of the chorus twice. Then it's just the second section of the interlude until
the end. The only thing I don't know is the background chords during the chorus and
the interlude, so if you could figure it out, help would be much appreciated! I hope
you love playing this song as much as I do.


| /  slide up
| \  slide down
| h  hammer-on
| p  pull-off
| ~  vibrato
| +  harmonic
| x  Mute note
===============================================================================
Comments