Reverend Horton Heat - One Time For Me Chords & Tabs

 

One Time For Me Chords & Tabs

Reverend Horton Heat Chords & Tabs

Version: 2 Type: Tab 0 ratings
1 star 2 stars 3 stars 4 stars 5 stars
comments

One Time For Me Tab

#----------------------------------PLEASE NOTE---------------------------------#
#This file is the author's own work and represents their interpretation of the #
#song. You may only use this file for private study, scholarship, or research. #
#------------------------------------------------------------------------------#
#


From rhart@webbernet.net Thu May 15 17:09:10 1997
Date: Wed, 13 Apr 1904 17:59:35 +0000
From: "Rob, Ryan Hart, and sometimes Cristine" 
To: guitar@olga.net
Subject: TAB: 'One Time For Me' by 'the Reverend Horton Heat'

----------------
One Time For Me
----------------
[ Tab from: http://www.guitartabs.cc/tabs/r/reverend_horton_heat/one_time_for_me_tab_ver_2.html ]
by the Reverend Horton Heat
tabbed by weevil (sub@servtech.com)
uploaded by Rob Hart rhart@webbernet.net
main riff
e|-------------------------------------------------------1----|
B|-------------------------------------------------------1----|
G|--------------------------repeat several times then---------|
D|--------------------------play this (Fm barred i think)3----|
A|---------1--3-3-3--2---1--with a wammy bar dive--------3----|
E|-1-1--4------------------------------------------------1----|

chorus type thing
e|----------------------------------------------------------|
B|----------------------------------------------------------|
G|----------------------------------------------------------|
D|-3--4-5---6--6-6-6-6-6-6----------------------------------|
A|-3--4-5---6--6-6-6-6-6-6--(keep strumming then return to--|
E|-1--2-3---4--4-4-4-4-4-4--------(opening riff)------------|

ending fast part
e|-----------------------------------------1--------------|
B|-----------------------------------------1--------------|
G|------------5-4-3------------5--4-3---------------------|
D|-3--3-3-3---5-4-3--3-3-3-3---5--4-3------3--------------|
A|-3--3-3-3---3-2-1--3-3-3-3---3--2-1------3--------------|
E|-1--1-1-1----------1-1-1-1---------------1--------------|
Comments