Reverend Horton Heat - Loco Gringos Like A Party Chords & Tabs

 

Loco Gringos Like A Party Chords & Tabs

Reverend Horton Heat Chords & Tabs

Version: 1 Type: Tab 0 ratings
1 star 2 stars 3 stars 4 stars 5 stars
comments

Loco Gringos Like A Party Tab

   
ARTIST: REVEREND HORTON HEAT
TITLE:  LOCO GRINGOS LIKE A PARTY
ALBUM:  LUCKY 7
TAB BY: DEREK

INTRO:
									    B5
E-----------------------------------------------------------------|
B-----------------------------------------------------------------|
G-----------------------------------------------------------------|
D---7b-5-7b-5------7b-5-7b-5----7b-5-7b-5------7b-5-7b-5--9999999-|
A--------------7-------------5------------7---------------9999999-|
E---------------------------------------------------------7777777-|

CHORUS:

  C5   A5   E5
E----------------------------------------------------------------|
B----------------------------------------------------------------|
G-5555-----------------------------------------------------------|  X3
D-5555-7777-22222222---------------------------------------------|
A-3333-7777-22222222---------------------------------------------|
E------5555-00000000---------------------------------------------|

On fourth time play:

  C5   A5   B5
E----------------------------------------------------------------|
B----------------------------------------------------------------|
G-5555-----------------------------------------------------------|  X1
D-5555-7777-99999999---------------------------------------------|
A-3333-7777-99999999---------------------------------------------|
E------5555-77777777---------------------------------------------|
[ Tab from: http://www.guitartabs.cc/tabs/r/reverend_horton_heat/loco_gringos_like_a_party_tab.html ]
VERSE:
  C5   A5   E5	     C5   A5   B5
E----------------------------------------------------------------|
B----------------------------------------------------------------|
G-5--------------------5-----------------------------------------|
D-5----7----22222222---5----7----99999999------------------------|
A-3----7----22222222---3----7----99999999------------------------|
E------5----00000000--------5----77777777------------------------|


Bass thing before solo:
E-----------------|
B-----------------|
G-----------------|
D-----------------|
A--3--------------|
E-----5--0--------|


SOLO:

E-----------------------------------------10-12-10---------------|
B-------10~~-----12p10----------9------12----------12---10b------|
G--9-11----------------9-8~~--9---9-------------------------12-9-|
D----------------------------------------------------------------|
A----------------------------------------------------------------|
E----------------------------------------------------------------|


E-12b-12b-12b-12b-12b-12b-12b-12b-12b-12b-12b-12b-12b-12b-12b-12--|b
B-----------------------------------------------------------------|
G-----------------------------------------------------------------|
D-----------------------------------------------------------------|
A-----------------------------------------------------------------|
E-----------------------------------------------------------------|
(repeat ad nauseum while bass plays root notes: C A E)

OUTRO:

  C5           A5           E5
E----------------------------------------------------------------|
B----------------------------------------------------------------|
G-5--------------------------------------------------------------|
D-5-----2------7-----5------2------------------------------------|
A-3-3-5---5-3--7-5-7---7-5--2------------------------------------|
E--------------5------------0------------------------------------|

I think this tab is mostly correct.  There may be a few errors or omissions,
but since no one had tabbed this song yet, at least it's a start.


"Better lives have been lived in the margins, locked in the prisons,
and lost on the gallows than have ever been enshrined in palaces."
-Propagandhi

"Our lives begin to end the day we become silent about things that matter."
-Rev. Dr. Martin Luther King, Jr.
Comments