Reverend Horton Heat - I Cant Surf Chords & Tabs

 

I Cant Surf Chords & Tabs

Reverend Horton Heat Chords & Tabs

Version: 3 Type: Tab 0 ratings
1 star 2 stars 3 stars 4 stars 5 stars
comments

I Cant Surf Tab

   
#This file is the author's own work and represents their interpretation of the song.
You may only use this file for private study, scholarship, or research.#


Title: I Can't Surf
Artist: The Reverend Horton Heat
Album: -

Instrument: Guitar

Tabbed by: Guido 

Tuning: Standard (E A D G B E)



~ = ring note
* = play it fast and strum like 15 times

E|------------------||
B|-2*--5*--8*--11*--||
G|-2---5---8---11---||
D|-2---5---8---11---||
A|------------------||
E|------------------||

"I can't surf"
E|----||\
B|-2--|| \
G|-2--||  \ keep playing this
D|-2--||  / note in correct rythm.
A|----|| /
E|----||/

"And neither can you"

E|----------------|----------------|----------------|----------------||
B|----------------|----------------|----------------|----------------||
G|-------------2-2|-1-1-1-1-0-0----|-------------2-2|-1-1-2-2-1-1~---||
D|---------2-2----|-------------2-2|---------2-2----|-----------1~---||
A|-0-0-3-3--------|----------------|-0-0-3-3--------|----------------||
E|----------------|----------------|----------------|----------------||\
                                                                         2X
E|----------------|----------------|----------------|----------------||/
B|----------------|----------------|----------------|----------------||
G|-------------2-2|-1-1-1-1-0-0----|----------------|----------------||
D|---------2-2----|-------------2-2|-0-0-3-3-2-2----|----------------||
A|-0-0-3-3--------|----------------|-------------3-3|---2------------||
E|----------------|----------------|----------------|-3---0~~--------||


E|------------------||
B|-2*--5*--8*--11*--||
G|-2---5---8---11---||
D|-2---5---8---11---||
A|------------------||
E|------------------||

"I can't surf"
E|----||\
B|-2--|| \
G|-2--||  \ keep playing this
D|-2--||  / note in correct rythm.
A|----|| /
E|----||/

"And neither can you"

(In this chorus there is another guitar but I can't figure out what he's playing...)
[ Tab from: http://www.guitartabs.cc/tabs/r/reverend_horton_heat/i_cant_surf_tab_ver_3.html ]
E|----------------|----------------|----------------|----------------||
B|----------------|----------------|----------------|----------------||
G|-------------2-2|-1-1-1-1-0-0----|-------------2-2|-1-1-2-2-1-1~---||
D|---------2-2----|-------------2-2|---------2-2----|-----------1~---||
A|-0-0-3-3--------|----------------|-0-0-3-3--------|----------------||
E|----------------|----------------|----------------|----------------||\
                                                                         2X
E|----------------|----------------|----------------|----------------||/
B|----------------|----------------|----------------|----------------||
G|-------------2-2|-1-1-1-1-0-0----|----------------|----------------||
D|---------2-2----|-------------2-2|-0-0-3-3-2-2----|----------------||
A|-0-0-3-3--------|----------------|-------------3-3|---2------------||
E|----------------|----------------|----------------|-3---0~~--------||


E|------------------||
B|-2*--5*--8*--11*--||
G|-2---5---8---11---||
D|-2---5---8---11---||
A|------------------||
E|------------------||

Here should be the solo but it's impossible to figure that out!
After the solo play:

E|------------------||
B|-2*--5*--8*--11*--||
G|-2---5---8---11---||
D|-2---5---8---11---||
A|------------------||
E|------------------||

"I can't surf"
E|----||\
B|-2--|| \
G|-2--||  \ keep playing this
D|-2--||  / note in correct rythm.
A|----|| /
E|----||/

"And neither can you"

E|----------------|----------------|----------------|----------------||
B|----------------|----------------|----------------|----------------||
G|-------------2-2|-1-1-1-1-0-0----|-------------2-2|-1-1-2-2-1-1~---||
D|---------2-2----|-------------2-2|---------2-2----|-----------1~---||
A|-0-0-3-3--------|----------------|-0-0-3-3--------|----------------||
E|----------------|----------------|----------------|----------------||\
                                                                         2X
E|----------------|----------------|----------------|----------------||/
B|----------------|----------------|----------------|----------------||
G|-------------2-2|-1-1-1-1-0-0----|----------------|----------------||
D|---------2-2----|-------------2-2|-0-0-3-3-2-2----|----------------||
A|-0-0-3-3--------|----------------|-------------3-3|---2------------||
E|----------------|----------------|----------------|-3---0~~--------||

E|------------------||
B|-2*--5*--8*--11*--||
G|-2---5---8---11---||
D|-2---5---8---11---||
A|------------------||
E|------------------||

"I can't surf"
E|----||\
B|-2--|| \
G|-2--||  \ keep playing this
D|-2--||  / note in correct rythm.
A|----|| /
E|----||/
Comments