Reverend Horton Heat - 400 Bucks Chords & Tabs

 

400 Bucks Chords & Tabs

Reverend Horton Heat Chords & Tabs

Version: 1 Type: Tab 0 ratings
1 star 2 stars 3 stars 4 stars 5 stars
comments

400 Bucks Tab

   
-------------------------------------------------------------------------------
			     400 bucks - reverend horton heat
-------------------------------------------------------------------------------

Tabbed by:Billy
Email:rockabillyfreak555@yahoo.com

Tuning:Eadgbe standard uses distion (blues driver)
    main riff 4x         then this  
e|---------------------|---------------x-x---x--------------x-x---17/0-------|
B|---------------------|-------------x-x-x-x-x------------x-x-x-x-17/0-------|
G|--9-9-9-9-9-9-9-9(9)-|-----------x-x-x---x------------x-x-x---x------------|
D|--7-7-7-7-7-7-7-7(7)-|--5-8-7--x-x-x-----x---5-8-7--x-x-x-----x------------|
A|--0-0-6-0-6-0-6-5(0)-|--5-8-7--x-x-----------5-8-7--x-x--------------------|
E|------------------3--|--3-6-5--x-------------3-6-5--x----------------------|
[ Tab from: http://www.guitartabs.cc/tabs/r/reverend_horton_heat/400_bucks_tab.html ]
e|--------------x-x---------------------------------------------x-----------|
B|------------x-x-x-x-------------------------------------------------------|
G|----------x-x-x---x-------------------------------------------------------|
D|-5-8-7--x-x-x-----x-below is played real sloppy-n fast-5-8-7-7-7-7-7-7-7-7|
A|-5-8-7--x-x---------almost just running finger over it-5-8-7-7-7-7-7-7-7-7|
E|-3-6-5--x-----------12-12-14-14-15-15-15-12-15/0-------3-6-5-5-5-5-5-5-5-5|
   verse 1:
e|--------------------------------------------------------------------------|
B|--------------------------------------------------------------------------|
G|--------------------------------------------------------------------------|
D|-5-8-7--------------------5-8-7-------------------------------------------|
A|-5-8-7--------------------5-8-7-------------------------------------------|
E|-3-6-5--------------------3-6-5-------------------------------------------|
         i sent ya 400 bucks      so you could buy some car .......ect
   chorus riff 4x
e|--------------------------------------------------------------------------|
B|-----------------------------|--------------------------------------------|
G|-----------------------------|--------------------------------------------|
D|-5-8-7-----------------------|5-8-7-----------------5-8-7-----------------|
A|-5-8-7-(strum out last chord)|5-8-7-----------------5-8-7-----------------|
E|-3-6-5-----------------------|3-6-5-----------------3-6-5-------------ect.|
   (no lyrics first time)        i sent ya 400 bucks,you where sweet that day
   then chorus with lyrics
   then intro riff 1& 2
  verse 3
  chorus again
  intro riff 1&2 but with changes of drum,bass fill.then solo starts with 
  guitar fill. 
     solo:
e|----5--5--5--5--5---------------------------------2-3-3-3-3-3-3-3-3-5-3-3-3|
B|----5--5--5--5--5-------|-(4x)-----------------|--2-3-3-3-3-3-3-3-3-5-3-3-3|
G|--7b---7b-7b-7b-7b-7-5--|-9-9-9-9-9-9-9-9-7-5--|---------------------------|
D|-----------------------7|-7-7-7-7-7-7-7-7-7-7-7|---------------------------|
A|------------------------|-0-0-0-0-0-0-0-0------|---------------------------|
E|---------------------------------------------------------------------------|

e|-3-3-3-3-3-5-3-5-3-5-3-5-6-7-8-9-|-17-17-17-17-17----------------|-5--5--5-|
B|-3-3-3-3-3-5-3-5-3-5-3-5-6-7-8-9-|-17-17-17-17-17----------------|-5--5--5-|
G|---------------------------------|----------------5-7-7b(8)-7-5--|-7b-7b-7b|
D|---------------------------------|---(2x)-----------------------7|---------|
A|---------------------------------|-------------------------------|---------|
E|---------------------------------|-------------------------------|---------|

e|----------------------|most to all of this is perfect when played right 
B|----------------------|lot of its the feel o0o and b means bend
G|-7-5------------------|
D|-----7-5--------------|
A|---------7-6-5-5-8-7--|
E|---------------3-6-5--|

  verse 4
  chorus 
  into riff 1 for a while rev. talks over it
  verse lick 1 for quick punk stop the end

| /  slide up
| \  slide down
| h  hammer-on
| p  pull-off
| ~  vibrato
| +  harmonic
| x  Mute note

===============================================================================
Comments