Revenge Of The Moose - Revenge Of The Moose Chords & Tabs

 

Revenge Of The Moose Chords & Tabs

Revenge Of The Moose Chords & Tabs

Version: 1 Type: Bass Tab 0 ratings
1 star 2 stars 3 stars 4 stars 5 stars
comments

Revenge Of The Moose Bass Tab

   
Lead Guitar Line for:

Revenge of the Moose

Intro: (Rest during bass solo)

Chorus:
G ------9---7-7-7-7-7-6-6-6-6-6-4-4-4-4-4----|
D -------------------------------------------|
A -7-----------------------------------------|
E -------------------------------------------|

Fill: (Sustained D)
G ---7-----|
D ---0-----|
A ---------|
E ---------|
[ Tab from: http://www.guitartabs.cc/tabs/r/revenge_of_the_moose/revenge_of_the_moose_btab.html ]
Verse:
G -7-7-7-6-6-6-6-7-7-7-4-2---7-7-7-6-6-6-6-7-7-7-4-2-|
D ---------------------------------------------------|
A ---------------------------------------------------|
E ---------------------------------------------------|

G -7-7-7-9-6-6-6-7-7-7-4-2---7-7-7-6-6-6-6-7-7-7-4-2-|
D ---------------------------------------------------|
A ---------------------------------------------------|
E ---------------------------------------------------|

Structure:
Bass Solo/Intro   x1
Drum Intro        x1
Bass Solo/Intro   x1
Chorus            x4
Fill              x4
Verse             x4
Chorus            x4
Fill              x4
Verse             x4
Bass Solo/Intro   x2
Comments