Revel 68 - Alone Chords & Tabs

 

Alone Chords & Tabs

Revel 68 Chords & Tabs

Version: 1 Type: Bass Tab 0 ratings
1 star 2 stars 3 stars 4 stars 5 stars
comments

Alone Bass Tab

Alone  - Revel 68

this is just the tab if you need more e-mail me

 intro repeat 4x
-5-5-x-------------------|
-5-5-x-5-5-x-7-x-3-3-3-x-|
-3-3-x-5-5-x-7-x-3-3-3-x-|
-------3-3-x-5-x-1-1-1-x-|

 verse repeat 4x
-5-----------------------------------------------------------------|
-5---------------------5--------------------7------------------3---|
-3---------------------5--------------------7------------------3---|
-----------------------3--------------------5------------------1---|

[ Tab from: http://www.guitartabs.cc/tabs/r/revel_68/alone_btab.html ]
repeat 4x
-5-5-x-------------------|
-5-5-x-5-5-x-7-x-3-3-3-x-|
-3-3-x-5-5-x-7-x-3-3-3-x-|
-------3-3-x-5-x-1-1-1-x-|


 chorus repeat 4x
55555555------------------------
55555555555555557777777733333333
33333333555555557777777733333333
--------333333335555555511111111


repeat 7x
-5-5-x-------------------|
-5-5-x-5-5-x-7-x-3-3-3-x-|
-3-3-x-5-5-x-7-x-3-3-3-x-|
-------3-3-x-5-x-1-1-1-x-|

outro
-5-5-x------------------------3----|
-5-5-x-5-5-x-7-5-3----3-5-5-3-3--5-|
-3-3-x-5-5-x-7-5-3----3-5-5-3-1--5-|
-------3-3-x-5-3-1----1-3-3-1----3-|
Comments