Reveille - What You Got Chords & Tabs

 

What You Got Chords & Tabs

Reveille Chords & Tabs

Version: 1 Type: Tab 0 ratings
1 star 2 stars 3 stars 4 stars 5 stars
comments

What You Got Tab

   
Reveille - What You Got
From the Album: Bleed the Sky
(As Tabbed by Stereo 76)
{edwardsn@lacrosse.com}

Tuned to Drop D & dropped 1/2 a step down [C# G# C# F# A# D#]

p = palm mute
/ = slide up
\ = slide down
h = hammer on


INTRO (distortion)
D#--------------------------------------------------------------
A#--------------------------------------------------------------
F#--7-----------------------------------------------------------
C#--0----(hold for 4 seconds)-----------------------------------
G#--0-----------------------------------------------------------
C#--0-----------------------------------------------------------


VERSE (distortion)
D#--------------------------------------------------------------
A#--------------------------------------------------------------
F#--------------------------------------------------------------
C#--0-h3-3-3/7-7--7-0-0-3-0----0-h3-3-3/7-7--7-0-0-3-0----------
G#--0-h3-3-3/7-7--7-0-0-3-0----0-h3-3-3/7-7--7-0-0-3-0----------
C#--0-h3-3-3/7-7--7-0-0-3-0----0-h3-3-3/7-7--7-0-0-3-0----------

D#--------------------------------------------------------------
A#--------------------------------------------------------------
F#--------------------------------------------------------------
C#--0-h3-3-3/7-7--7-0-0-3-0----0-h3-3-3/7-7--7-0-0-3-0----------
G#--0-h3-3-3/7-7--7-0-0-3-0----0-h3-3-3/7-7--7-0-0-3-0----------
C#--0-h3-3-3/7-7--7-0-0-3-0----0-h3-3-3/7-7--7-0-0-3-0----------


D#--------------------------------------------------------------
A#--------------------------------------------------------------
F#--------------------------------------------------------------
C#--0-h3-3-3/7-7--7-0-0-3-0----0-h3-3-3/7-7--7-0-0-3-0----------
G#--0-h3-3-3/7-7--7-0-0-3-0----0-h3-3-3/7-7--7-0-0-3-0----------
C#--0-h3-3-3/7-7--7-0-0-3-0----0-h3-3-3/7-7--7-0-0-3-0----------

D#----------------------------  ----- P
C#--0-h3-3-3/7-7--7-0-0-3-0----0-h3-3-3/7-7--7-7-7-8-8-7-7------ E
G#--0-h3-3-3/7-7--7-0-0-3-0----0-h3-3-3/7-7--7-7-7-8-8-7-7------ A
C#--0-h3-3-3/7-7--7-0-0-3-0----0-h3-3-3/7-7--7-7-7-8-8-7-7------ T

[ Tab from: http://www.guitartabs.cc/tabs/r/reveille/what_you_got_tab.html ]
CHORUS (distortion) (played fairly quickly. listen to the song
                     for timing if you need to)
D#--------------------------------------------------------------
A#--------------------------------------------------------------
F#--------------------------------------------------------------
C#--12-12-12-12-12-12-12-12-12\5-5-5/6-6/7-7-0-0-0-0-0-0-0-0-0/5
G#--12-12-12-12-12-12-12-12-12\5-5-5/6-6/7-7-0-0-0-0-0-0-0-0-0/5
C#--12-12-12-12-12-12-12-12-12\5-5-5/6-6/7-7-0-0-0-0-0-0-0-0-0/5

D#--------------------------------------------------------------
A#--------------------------------------------------------------
F#--------------------------------------------------------*--*--
C#--5-5/6-6/-7-7-12-12-12-12-12-12-12-12-12\5-5-5/6-6/7-7-0--0--
G#--5-5/6-6/-7-7-12-12-12-12-12-12-12-12-12\5-5-5/6-6/7-7-0--0--
C#--5-5/6-6/-7-7-12-12-12-12-12-12-12-12-12\5-5-5/6-6/7-7-0--0--

D#--------------------------------------------------------------
A#-----------------  -----
G#--0/5-5-5/6-6/7-----------------------------------------------
C#--0/5-5-5/6-6/7-----------------------------------------------


**PLAY VERSE  
**PLAY CHORUS 


BRIDGE (distortion)
D#--------------------------------------------------------------
A#----------  --p7-p7-p7-p7-p7-p8-p7-  -
C#--0-0-0-------------------------------------------------------
G#--0-0-0-------------------------------------------------------
C#--0-0-0-------------------------------------------------------

D#--------------------------------------------------------------
A#--------------------------------------------------------------
F#--p7-p7-p7-p7-p7-p8-p7----------------------------------------
C#---x--x--x--x--x--x--x ----------------------------
G#--p5-p5-p5-p5-p5-p6-p5----------------------------------------
C#--------------------------------------------------------------


BRIDGE II (distortion) (let both C# strings ring throughout)
D#--------------------------------------------------------------
A#--------------------------------------------------------------
F#--7--7/8----------------------7/8-8-7/8-8----------7--7/8-----
C#--0--0---  --0---0-0---0-  -0--0----
G#--5--5/6----------------------5/6-6-5/6-6----------5--5/6-----
C#--0--0------------------------0---0-0---0----------0--0-------


**PLAY CHORUS ONE LAST TIME
Comments