Reveille - Unborn Chords & Tabs

 

Unborn Chords & Tabs

Reveille Chords & Tabs

Version: 1 Type: Tab 0 ratings
1 star 2 stars 3 stars 4 stars 5 stars
comments

Unborn Tab

   
ARTIST: REVEILLE
SONG: UNBORN
ALBUM: BLEED THE SKY
TRACK #: ONE

   tune down 1/2 step and drop the low e to a d flat

   INTRO

   e|------10-------------------|
   B|----------10--9------------|
   G|-----------------10--9--7--|
   D|-0-------------------------|
   A|-0-------------------------|
   D|-0-------------------------|
    
   BRIDGE
[ Tab from: http://www.guitartabs.cc/tabs/r/reveille/unborn_tab.html ]
   e|-----------------------------------------------------------|
   B|-----------------------------------------------------------|
   G|-----------------------------------------------------------|
   D|-00-0-0-000-0-0-000-0-0-00-3-00-0-0-000-0-0-000-0-0-00-353-|
   A|-00-0-0-000-0-0-000-0-0-00-3-00-0-0-000-0-0-000-0-0-00-353-|
   D|-00-0-0-000-0-0-000-0-0-00-3-00-0-0-000-0-0-000-0-0-00-353-|

   CHORUS

   e|-------------------|
   B|-------------------|
   G|-------------------|
   D|-7-----------------|
   A|-5--7--6--3--2--0--|
   D|----7--6--3--2--0--|       REPEAT 3 TIMES THEN GO 

   e|----------|
   B|----------|
   G|----------|
   D|-7--10--7-|
   A|-7--10--5-|
   D|-7--10----|     


   listen to song for rythem, timing and order
Comments