Reveille - Perfect World Chords & Tabs

 

Perfect World Chords & Tabs

Reveille Chords & Tabs

Version: 1 Type: Bass Tab 0 ratings
1 star 2 stars 3 stars 4 stars 5 stars
comments

Perfect World Bass Tab

Reveille	Perfect World
Laced
Tabbed by: By: Ryan Landis

I'm not sure about the tuning here..... it might be in drop D, some of the 
notes sound lower than E, but i'm not sure so I'll leave the tab in E. It's 
not too difficult to tune it down of course. I love Reveille, they are one 
of my favorite bands, and I couldn't find tabs anywhere, so this is my first 
attempt at doing my own, let me know what you think. I love playing this 
song and it sounds right to me.

Intro:
G-------------------------------------------------------------
D-------------------------------------------------------------
A-------------------------------------------------------------
E---0-65-0-32--0-23-0-56--0-65-0-32--0-23-0-56--------

Bass solo.Chorus
G-------------------------------------------------------------
D-------------------------------------------------------------
A-------------------------------------------------------------
E--0-43-0-54-0-76-0-543-0-43-0-54-0-76-0-543----------
[ Tab from: http://www.guitartabs.cc/tabs/r/reveille/perfect_world_btab.html ]
Another bass solo:
G-------------------------------------------------------------
D-------------------------------------------------------------
A---00-3-00-5-6-7-6666-77--00-3-00-5-6-7-6666-77-----
E--------------------------------------------------------------

G-------------------------------------------------------------
D-------------------------------------------------------------
A-------------------------------------------------------------
E---0-65-0-33-22-0-23-0-55-6-0-65-0-33-22-0-23-0-55-6

G-------------------------------------------------------------
D-------------------------------------------------------------
A-------------------------------------------------------------
E--0-43-0-54-0-76-0-543-0-43-0-54-0-76-0-543----------

G-------------------------------------------------------------
D-------------------------------------------------------------
A-------------------------------------------------------------
E--3/5-5/6-6/7-7\5-5\3-3/5-5/6-6/7-7\5-5\3-----------------

You'll have to listen to it to get how many times to play each part and 
timings and whatnot. If anyone should have any corrections, mail them to me 
as well as the archive please.

staind667@hotmail.com	icq#10677836	AIM SN: staind667

Comments