Reveille - Butterfly Chords & Tabs

 

Butterfly Chords & Tabs

Reveille Chords & Tabs

Version: 1 Type: Tab 0 ratings
1 star 2 stars 3 stars 4 stars 5 stars
comments

Butterfly Tab

   
-------------------------------------------------------------------------------
			     BUTTERFLY-Reveille
-------------------------------------------------------------------------------

Tabbed by: Shifty McRiffty
Email:BIGDnVA@msn.com

Tuning:Db Ab Db Gb Bb Eb

INTRO:
e|---------------------------------------------------------------------------|
B|---------------------------------------------------------------------------|
G|---------------------------------------------------------------------------|
D|---------------------------------------------------------------------------|
A|0h2220-0-3-33/6------------------------------------------------------------|
E|0h2220-0-3-33/6------REPEAT------------------------------------------------|

2nd INTRO:
e|---------------------------------------------------------------------------|
B|---------------------------------------------------------------------------|
G|---------------------------------------------------------------------------|
D|---------------------------------------------------------------------------|
A|022220-0-33330-0-22220-0-3-33/6--------------------------------------------|
E|022220-0-33330-0-22220-0-3-33/6--------------------------------------------|

Fill:
e|---------------------------------------------------------------------------|
B|---------------------------------------------------------------------------|
G|---------------------------------------------------------------------------|
D|-----(12's and 13's)-------------------------------------------------------|
A|---------------------------------------------------------------------------|
E|01213-01213-01213-01213-12\------------------------------------------------|
[ Tab from: http://www.guitartabs.cc/tabs/r/reveille/butterfly_tab.html ]
VERSE: palm muted
e|---------------------------------------------------------------------------|
B|---------------------------------------------------------------------------|
G|---------------------------------------------------------------------------|
D|---------------------------------------------------------------------------|
A|---------------------------------------------------------------------------|
E|6-23-0-053-6-23-0-05-------------------------------------------------------|

PRE-CHORUS:
e|---------------------------------------------------------------------------|
B|---------------------------------------------------------------------------|
G|---------------------------------------------------------------------------|
D|----------------------------------------6-23-------------------------------|
A|5h6-xxxxx-5h6-xxxxx-5h6-xxxxx-5h6-xxxxx-6-23-------------------------------|
E|5h6-xxxxx-5h6-xxxxx-5h6-xxxxx-5h6-xxxxx-6-23-------------------------------|

CHORUS:
e|---------------------------------------------------------------------------|
B|---------------------------------------------------------------------------|
G|---------------------------------------------------------------------------|
D|6-23-0-053-6-23-0-05-------------------------------------------------------|
A|6-23-0-053-6-23-0-05-------------------------------------------------------|
E|6-23-0-053-6-23-0-05-------------------------------------------------------|

BRIDGE:  ("Jesus Christ, rip yourself from the cross...")
e|---------------------------------------------------------------------------|
B|---------------------------------------------------------------------------|
G|---------------------------------------------------------------------------|
D|5650-0-5650-0-2320-5650-0-5650-3-------------------------------------------|
A|5650-0-5650-0-2320-5650-0-5650-3-------------------------------------------|
E|5650-0-5650-0-2320-5650-0-5650-3-------------------------------------------|

2nd BRIDGE:
e|---------------------------------------------------------------------------|
B|---------------------------------------------------------------------------|
G|---------------------------------------------------------------------------|
D|0-00-6-00-5-00-6-0-------0-00-6-00-5-00------------------------------------|
A|0-00-6-00-5-00-6-0-8h10--0-00-6-00-5-00-56530------------------------------|
E|0-00-6-00-5-00-6-0-8h10--0-00-6-00-5-00-56530------------------------------|
                                          ^(palm mute)

| /  slide up
| \  slide down
| h  hammer-on
| p  pull-off
| ~  vibrato
| +  harmonic
| x  Mute note

===============================================================================
Comments